ISO-10303-21;
HEADER;
FILE_DESCRIPTION (( 'STEP AP203' ),
    '1' );
FILE_NAME ('4941.STEP',
    '2022-07-07T17:03:29',
    ( '' ),
    ( '' ),
    'SwSTEP 2.0',
    'SolidWorks 2019',
    '' );
FILE_SCHEMA (( 'CONFIG_CONTROL_DESIGN' ));
ENDSEC;

DATA;
#1 = APPROVAL_STATUS ( 'not_yet_approved' ) ;
#2 = CARTESIAN_POINT ( 'NONE',  ( 0.000000000000000000, 0.000000000000000000, 8.000000000000000000 ) ) ;
#3 = PERSON_AND_ORGANIZATION ( #69, #145 ) ;
#4 = AXIS2_PLACEMENT_3D ( 'NONE', #213, #53, #118 ) ;
#5 = PRODUCT ( '4941', '4941', '', ( #177 ) ) ;
#6 = LINE ( 'NONE', #66, #62 ) ;
#7 = EDGE_CURVE ( 'NONE', #14, #208, #148, .T. ) ;
#8 = APPROVAL_PERSON_ORGANIZATION ( #100, #77, #250 ) ;
#9 = PLANE ( 'NONE',  #128 ) ;
#10 = ORIENTED_EDGE ( 'NONE', *, *, #59, .F. ) ;
#11 = ADVANCED_FACE ( 'NONE', ( #132 ), #191, .T. ) ;
#12 = DIRECTION ( 'NONE',  ( -0.000000000000000000, -0.000000000000000000, -1.000000000000000000 ) ) ;
#13 = CARTESIAN_POINT ( 'NONE',  ( 10.00000000000000178, 1.224646799147353454E-15, 408.0000000000000568 ) ) ;
#14 = VERTEX_POINT ( 'NONE', #30 ) ;
#15 = COORDINATED_UNIVERSAL_TIME_OFFSET ( 1, 0, .AHEAD. ) ;
#16 = VECTOR ( 'NONE', #75, 1000.000000000000000 ) ;
#17 = CC_DESIGN_APPROVAL ( #25, ( #243 ) ) ;
#18 = DIRECTION ( 'NONE',  ( 0.000000000000000000, 0.000000000000000000, 1.000000000000000000 ) ) ;
#19 = COORDINATED_UNIVERSAL_TIME_OFFSET ( 1, 0, .AHEAD. ) ;
#20 = VERTEX_POINT ( 'NONE', #190 ) ;
#21 = FACE_OUTER_BOUND ( 'NONE', #188, .T. ) ;
#22 = PERSON_AND_ORGANIZATION_ROLE ( 'design_supplier' ) ;
#23 = APPROVAL_DATE_TIME ( #179, #151 ) ;
#24 = FACE_OUTER_BOUND ( 'NONE', #153, .T. ) ;
#25 = APPROVAL ( #138, 'NEURÈENÝ' ) ;
#26 = DIRECTION ( 'NONE',  ( 0.000000000000000000, 0.000000000000000000, 1.000000000000000000 ) ) ;
#27 = DIRECTION ( 'NONE',  ( 1.000000000000000000, 0.000000000000000000, 0.000000000000000000 ) ) ;
#28 = CARTESIAN_POINT ( 'NONE',  ( 13.00000000000000178, 1.592040838891559293E-15, 8.000000000000000000 ) ) ;
#29 = EDGE_CURVE ( 'NONE', #149, #20, #89, .T. ) ;
#30 = CARTESIAN_POINT ( 'NONE',  ( -10.00000000000000178, 0.000000000000000000, 408.0000000000000568 ) ) ;
#31 = ORIENTED_EDGE ( 'NONE', *, *, #59, .T. ) ;
#32 = ORIENTED_EDGE ( 'NONE', *, *, #123, .F. ) ;
#33 = CC_DESIGN_PERSON_AND_ORGANIZATION_ASSIGNMENT ( #135, #252, ( #243 ) ) ;
#34 = VERTEX_POINT ( 'NONE', #247 ) ;
#35 =( GEOMETRIC_REPRESENTATION_CONTEXT ( 3 ) GLOBAL_UNCERTAINTY_ASSIGNED_CONTEXT ( ( #130 ) ) GLOBAL_UNIT_ASSIGNED_CONTEXT ( ( #58, #79, #238 ) ) REPRESENTATION_CONTEXT ( 'NONE', 'WORKASPACE' ) );
#36 = LINE ( 'NONE', #215, #159 ) ;
#37 = LOCAL_TIME ( 19, 3, 29.00000000000000000, #235 ) ;
#38 = EDGE_CURVE ( 'NONE', #208, #34, #114, .T. ) ;
#39 = AXIS2_PLACEMENT_3D ( 'NONE', #67, #85, #182 ) ;
#40 = DATE_AND_TIME ( #122, #214 ) ;
#41 = AXIS2_PLACEMENT_3D ( 'NONE', #142, #225, #126 ) ;
#42 = CARTESIAN_POINT ( 'NONE',  ( -13.00000000000000178, 0.000000000000000000, 8.000000000000000000 ) ) ;
#43 = PERSON_AND_ORGANIZATION ( #69, #145 ) ;
#44 = PRODUCT_DEFINITION_FORMATION_WITH_SPECIFIED_SOURCE ( 'LIBOVOLNÝ', '', #5, .NOT_KNOWN. ) ;
#45 = CC_DESIGN_PERSON_AND_ORGANIZATION_ASSIGNMENT ( #43, #22, ( #44 ) ) ;
#46 = DIRECTION ( 'NONE',  ( 1.000000000000000000, 0.000000000000000000, -0.000000000000000000 ) ) ;
#47 = CARTESIAN_POINT ( 'NONE',  ( 0.000000000000000000, 0.000000000000000000, 8.000000000000000000 ) ) ;
#48 = AXIS2_PLACEMENT_3D ( 'NONE', #207, #109, #157 ) ;
#49 = DIRECTION ( 'NONE',  ( -0.000000000000000000, -0.000000000000000000, -1.000000000000000000 ) ) ;
#50 = CC_DESIGN_APPROVAL ( #77, ( #44 ) ) ;
#51 = CIRCLE ( 'NONE', #97, 13.00000000000000178 ) ;
#52 = EDGE_LOOP ( 'NONE', ( #193, #147, #111, #32 ) ) ;
#53 = DIRECTION ( 'NONE',  ( -0.000000000000000000, -0.000000000000000000, -1.000000000000000000 ) ) ;
#54 = ORIENTED_EDGE ( 'NONE', *, *, #116, .F. ) ;
#55 = VERTEX_POINT ( 'NONE', #92 ) ;
#56 = VECTOR ( 'NONE', #229, 1000.000000000000000 ) ;
#57 = CIRCLE ( 'NONE', #167, 10.00000000000000178 ) ;
#58 =( LENGTH_UNIT ( ) NAMED_UNIT ( * ) SI_UNIT ( .MILLI., .METRE. ) );
#59 = EDGE_CURVE ( 'NONE', #20, #55, #199, .T. ) ;
#60 = CALENDAR_DATE ( 2022, 7, 7 ) ;
#61 = PERSON_AND_ORGANIZATION ( #69, #145 ) ;
#62 = VECTOR ( 'NONE', #49, 1000.000000000000000 ) ;
#63 = CALENDAR_DATE ( 2022, 7, 7 ) ;
#64 = ORIENTED_EDGE ( 'NONE', *, *, #163, .T. ) ;
#65 = CYLINDRICAL_SURFACE ( 'NONE', #83, 10.00000000000000178 ) ;
#66 = CARTESIAN_POINT ( 'NONE',  ( -10.00000000000000178, 0.000000000000000000, 408.0000000000000568 ) ) ;
#67 = CARTESIAN_POINT ( 'NONE',  ( 0.000000000000000000, 0.000000000000000000, 8.000000000000000000 ) ) ;
#68 = EDGE_CURVE ( 'NONE', #71, #55, #36, .T. ) ;
#69 = PERSON ( 'NEURÈENÝ', 'NEURÈENÝ', 'NEURÈENÝ', ('NEURÈENÝ'), ('NEURÈENÝ'), ('NEURÈENÝ') ) ;
#70 = ORIENTED_EDGE ( 'NONE', *, *, #172, .F. ) ;
#71 = VERTEX_POINT ( 'NONE', #28 ) ;
#72 = ADVANCED_FACE ( 'NONE', ( #21 ), #255, .T. ) ;
#73 = ORIENTED_EDGE ( 'NONE', *, *, #29, .T. ) ;
#74 = ORIENTED_EDGE ( 'NONE', *, *, #217, .F. ) ;
#75 = DIRECTION ( 'NONE',  ( -0.000000000000000000, -0.000000000000000000, -1.000000000000000000 ) ) ;
#76 = APPROVAL_DATE_TIME ( #137, #77 ) ;
#77 = APPROVAL ( #1, 'NEURÈENÝ' ) ;
#78 = SECURITY_CLASSIFICATION ( '', '', #104 ) ;
#79 =( NAMED_UNIT ( * ) PLANE_ANGLE_UNIT ( ) SI_UNIT ( $, .RADIAN. ) );
#80 = FACE_BOUND ( 'NONE', #152, .T. ) ;
#81 = APPROVAL_ROLE ( '' ) ;
#82 = CARTESIAN_POINT ( 'NONE',  ( 0.000000000000000000, 0.000000000000000000, 408.0000000000000568 ) ) ;
#83 = AXIS2_PLACEMENT_3D ( 'NONE', #103, #185, #222 ) ;
#84 = DATE_AND_TIME ( #60, #117 ) ;
#85 = DIRECTION ( 'NONE',  ( 0.000000000000000000, 0.000000000000000000, 1.000000000000000000 ) ) ;
#86 = CARTESIAN_POINT ( 'NONE',  ( 0.000000000000000000, 0.000000000000000000, 0.000000000000000000 ) ) ;
#87 = ADVANCED_FACE ( 'NONE', ( #186 ), #65, .T. ) ;
#88 = EDGE_LOOP ( 'NONE', ( #113, #175, #194, #211 ) ) ;
#89 = LINE ( 'NONE', #196, #16 ) ;
#90 = AXIS2_PLACEMENT_3D ( 'NONE', #82, #164, #46 ) ;
#91 = DIRECTION ( 'NONE',  ( 0.000000000000000000, 0.000000000000000000, 1.000000000000000000 ) ) ;
#92 = CARTESIAN_POINT ( 'NONE',  ( 13.00000000000000178, 1.592040838891559293E-15, 0.000000000000000000 ) ) ;
#93 = CC_DESIGN_PERSON_AND_ORGANIZATION_ASSIGNMENT ( #98, #181, ( #5 ) ) ;
#94 = CLOSED_SHELL ( 'NONE', ( #87, #11, #108, #169, #227, #254, #72 ) ) ;
#95 = AXIS2_PLACEMENT_3D ( 'NONE', #202, #140, #205 ) ;
#96 = DIRECTION ( 'NONE',  ( 0.000000000000000000, 0.000000000000000000, 1.000000000000000000 ) ) ;
#97 = AXIS2_PLACEMENT_3D ( 'NONE', #2, #18, #127 ) ;
#98 = PERSON_AND_ORGANIZATION ( #69, #145 ) ;
#99 = CARTESIAN_POINT ( 'NONE',  ( -10.00000000000000178, 0.000000000000000000, 8.000000000000000000 ) ) ;
#100 = PERSON_AND_ORGANIZATION ( #69, #145 ) ;
#101 = ADVANCED_BREP_SHAPE_REPRESENTATION ( '4941', ( #251, #228 ), #35 ) ;
#102 = PRODUCT_DEFINITION_SHAPE ( 'NONE', 'NONE',  #243 ) ;
#103 = CARTESIAN_POINT ( 'NONE',  ( 0.000000000000000000, 0.000000000000000000, 408.0000000000000568 ) ) ;
#104 = SECURITY_CLASSIFICATION_LEVEL ( 'unclassified' ) ;
#105 = SHAPE_DEFINITION_REPRESENTATION ( #102, #101 ) ;
#106 = CYLINDRICAL_SURFACE ( 'NONE', #187, 13.00000000000000178 ) ;
#107 = FACE_OUTER_BOUND ( 'NONE', #232, .T. ) ;
#108 = ADVANCED_FACE ( 'NONE', ( #24 ), #106, .T. ) ;
#109 = DIRECTION ( 'NONE',  ( -0.000000000000000000, -0.000000000000000000, -1.000000000000000000 ) ) ;
#110 = ORIENTED_EDGE ( 'NONE', *, *, #68, .F. ) ;
#111 = ORIENTED_EDGE ( 'NONE', *, *, #116, .T. ) ;
#112 = DIRECTION ( 'NONE',  ( 0.000000000000000000, 0.000000000000000000, 1.000000000000000000 ) ) ;
#113 = ORIENTED_EDGE ( 'NONE', *, *, #38, .F. ) ;
#114 = LINE ( 'NONE', #13, #56 ) ;
#115 = EDGE_LOOP ( 'NONE', ( #131, #170 ) ) ;
#116 = EDGE_CURVE ( 'NONE', #34, #230, #119, .T. ) ;
#117 = LOCAL_TIME ( 19, 3, 29.00000000000000000, #19 ) ;
#118 = DIRECTION ( 'NONE',  ( -1.000000000000000000, 0.000000000000000000, 0.000000000000000000 ) ) ;
#119 = CIRCLE ( 'NONE', #39, 10.00000000000000178 ) ;
#120 = CALENDAR_DATE ( 2022, 7, 7 ) ;
#121 = AXIS2_PLACEMENT_3D ( 'NONE', #173, #91, #248 ) ;
#122 = CALENDAR_DATE ( 2022, 7, 7 ) ;
#123 = EDGE_CURVE ( 'NONE', #14, #230, #6, .T. ) ;
#124 = CARTESIAN_POINT ( 'NONE',  ( 0.000000000000000000, 0.000000000000000000, 408.0000000000000568 ) ) ;
#125 = COORDINATED_UNIVERSAL_TIME_OFFSET ( 1, 0, .AHEAD. ) ;
#126 = DIRECTION ( 'NONE',  ( 1.000000000000000000, 0.000000000000000000, -0.000000000000000000 ) ) ;
#127 = DIRECTION ( 'NONE',  ( 1.000000000000000000, 0.000000000000000000, 0.000000000000000000 ) ) ;
#128 = AXIS2_PLACEMENT_3D ( 'NONE', #86, #129, #244 ) ;
#129 = DIRECTION ( 'NONE',  ( 0.000000000000000000, 0.000000000000000000, 1.000000000000000000 ) ) ;
#130 = UNCERTAINTY_MEASURE_WITH_UNIT (LENGTH_MEASURE( 1.000000000000000082E-05 ), #58, 'distance_accuracy_value', 'NONE');
#131 = ORIENTED_EDGE ( 'NONE', *, *, #156, .T. ) ;
#132 = FACE_OUTER_BOUND ( 'NONE', #231, .T. ) ;
#133 = CARTESIAN_POINT ( 'NONE',  ( 0.000000000000000000, 0.000000000000000000, 408.0000000000000568 ) ) ;
#134 = LOCAL_TIME ( 19, 3, 29.00000000000000000, #15 ) ;
#135 = PERSON_AND_ORGANIZATION ( #69, #145 ) ;
#136 = CALENDAR_DATE ( 2022, 7, 7 ) ;
#137 = DATE_AND_TIME ( #63, #189 ) ;
#138 = APPROVAL_STATUS ( 'not_yet_approved' ) ;
#139 = DATE_TIME_ROLE ( 'classification_date' ) ;
#140 = DIRECTION ( 'NONE',  ( 0.000000000000000000, 0.000000000000000000, 1.000000000000000000 ) ) ;
#141 = CARTESIAN_POINT ( 'NONE',  ( 0.000000000000000000, 0.000000000000000000, 0.000000000000000000 ) ) ;
#142 = CARTESIAN_POINT ( 'NONE',  ( 0.000000000000000000, 0.000000000000000000, 8.000000000000000000 ) ) ;
#143 = FACE_OUTER_BOUND ( 'NONE', #115, .T. ) ;
#144 = FACE_OUTER_BOUND ( 'NONE', #88, .T. ) ;
#145 = ORGANIZATION ( 'NEURÈENÝ', 'NEURÈENÝ', '' ) ;
#146 = APPLICATION_CONTEXT ( 'configuration controlled 3d designs of mechanical parts and assemblies' ) ;
#147 = ORIENTED_EDGE ( 'NONE', *, *, #38, .T. ) ;
#148 = CIRCLE ( 'NONE', #166, 10.00000000000000178 ) ;
#149 = VERTEX_POINT ( 'NONE', #42 ) ;
#150 = ORIENTED_EDGE ( 'NONE', *, *, #172, .T. ) ;
#151 = APPROVAL ( #201, 'NEURÈENÝ' ) ;
#152 = EDGE_LOOP ( 'NONE', ( #245, #54 ) ) ;
#153 = EDGE_LOOP ( 'NONE', ( #110, #210, #73, #31 ) ) ;
#154 = AXIS2_PLACEMENT_3D ( 'NONE', #124, #160, #237 ) ;
#155 = PRODUCT_RELATED_PRODUCT_CATEGORY ( 'detail', '', ( #5 ) ) ;
#156 = EDGE_CURVE ( 'NONE', #149, #71, #51, .T. ) ;
#157 = DIRECTION ( 'NONE',  ( -1.000000000000000000, 0.000000000000000000, 0.000000000000000000 ) ) ;
#158 = PERSON_AND_ORGANIZATION_ROLE ( 'creator' ) ;
#159 = VECTOR ( 'NONE', #12, 1000.000000000000000 ) ;
#160 = DIRECTION ( 'NONE',  ( 0.000000000000000000, 0.000000000000000000, 1.000000000000000000 ) ) ;
#161 = APPLICATION_PROTOCOL_DEFINITION ( 'international standard', 'config_control_design', 1994, #183 ) ;
#162 = CIRCLE ( 'NONE', #216, 13.00000000000000178 ) ;
#163 = EDGE_CURVE ( 'NONE', #208, #14, #221, .T. ) ;
#164 = DIRECTION ( 'NONE',  ( 0.000000000000000000, 0.000000000000000000, 1.000000000000000000 ) ) ;
#165 = CARTESIAN_POINT ( 'NONE',  ( 0.000000000000000000, 0.000000000000000000, 8.000000000000000000 ) ) ;
#166 = AXIS2_PLACEMENT_3D ( 'NONE', #133, #112, #249 ) ;
#167 = AXIS2_PLACEMENT_3D ( 'NONE', #180, #204, #27 ) ;
#168 = CC_DESIGN_SECURITY_CLASSIFICATION ( #78, ( #44 ) ) ;
#169 = ADVANCED_FACE ( 'NONE', ( #80, #143 ), #240, .T. ) ;
#170 = ORIENTED_EDGE ( 'NONE', *, *, #217, .T. ) ;
#171 = ORIENTED_EDGE ( 'NONE', *, *, #68, .T. ) ;
#172 = EDGE_CURVE ( 'NONE', #55, #20, #209, .T. ) ;
#173 = CARTESIAN_POINT ( 'NONE',  ( 0.000000000000000000, 0.000000000000000000, 0.000000000000000000 ) ) ;
#174 = DESIGN_CONTEXT ( 'detailed design', #183, 'design' ) ;
#175 = ORIENTED_EDGE ( 'NONE', *, *, #7, .F. ) ;
#176 = CC_DESIGN_PERSON_AND_ORGANIZATION_ASSIGNMENT ( #233, #218, ( #78 ) ) ;
#177 = MECHANICAL_CONTEXT ( 'NONE', #146, 'mechanical' ) ;
#178 = APPROVAL_PERSON_ORGANIZATION ( #61, #25, #81 ) ;
#179 = DATE_AND_TIME ( #136, #37 ) ;
#180 = CARTESIAN_POINT ( 'NONE',  ( 0.000000000000000000, 0.000000000000000000, 8.000000000000000000 ) ) ;
#181 = PERSON_AND_ORGANIZATION_ROLE ( 'design_owner' ) ;
#182 = DIRECTION ( 'NONE',  ( 1.000000000000000000, 0.000000000000000000, 0.000000000000000000 ) ) ;
#183 = APPLICATION_CONTEXT ( 'configuration controlled 3d designs of mechanical parts and assemblies' ) ;
#184 = DIRECTION ( 'NONE',  ( -0.000000000000000000, -0.000000000000000000, -1.000000000000000000 ) ) ;
#185 = DIRECTION ( 'NONE',  ( -0.000000000000000000, -0.000000000000000000, -1.000000000000000000 ) ) ;
#186 = FACE_OUTER_BOUND ( 'NONE', #52, .T. ) ;
#187 = AXIS2_PLACEMENT_3D ( 'NONE', #165, #184, #242 ) ;
#188 = EDGE_LOOP ( 'NONE', ( #212, #64 ) ) ;
#189 = LOCAL_TIME ( 19, 3, 29.00000000000000000, #203 ) ;
#190 = CARTESIAN_POINT ( 'NONE',  ( -13.00000000000000178, 0.000000000000000000, 0.000000000000000000 ) ) ;
#191 = CYLINDRICAL_SURFACE ( 'NONE', #4, 13.00000000000000178 ) ;
#192 = ORIENTED_EDGE ( 'NONE', *, *, #29, .F. ) ;
#193 = ORIENTED_EDGE ( 'NONE', *, *, #163, .F. ) ;
#194 = ORIENTED_EDGE ( 'NONE', *, *, #123, .T. ) ;
#195 = APPROVAL_PERSON_ORGANIZATION ( #3, #151, #220 ) ;
#196 = CARTESIAN_POINT ( 'NONE',  ( -13.00000000000000178, 0.000000000000000000, 8.000000000000000000 ) ) ;
#197 = DATE_AND_TIME ( #120, #134 ) ;
#198 = EDGE_CURVE ( 'NONE', #230, #34, #57, .T. ) ;
#199 = CIRCLE ( 'NONE', #121, 13.00000000000000178 ) ;
#200 = DIRECTION ( 'NONE',  ( 1.000000000000000000, 0.000000000000000000, 0.000000000000000000 ) ) ;
#201 = APPROVAL_STATUS ( 'not_yet_approved' ) ;
#202 = CARTESIAN_POINT ( 'NONE',  ( 0.000000000000000000, 0.000000000000000000, 0.000000000000000000 ) ) ;
#203 = COORDINATED_UNIVERSAL_TIME_OFFSET ( 1, 0, .AHEAD. ) ;
#204 = DIRECTION ( 'NONE',  ( 0.000000000000000000, 0.000000000000000000, 1.000000000000000000 ) ) ;
#205 = DIRECTION ( 'NONE',  ( 1.000000000000000000, 0.000000000000000000, 0.000000000000000000 ) ) ;
#206 = CC_DESIGN_APPROVAL ( #151, ( #78 ) ) ;
#207 = CARTESIAN_POINT ( 'NONE',  ( 0.000000000000000000, 0.000000000000000000, 408.0000000000000568 ) ) ;
#208 = VERTEX_POINT ( 'NONE', #224 ) ;
#209 = CIRCLE ( 'NONE', #95, 13.00000000000000178 ) ;
#210 = ORIENTED_EDGE ( 'NONE', *, *, #156, .F. ) ;
#211 = ORIENTED_EDGE ( 'NONE', *, *, #198, .T. ) ;
#212 = ORIENTED_EDGE ( 'NONE', *, *, #7, .T. ) ;
#213 = CARTESIAN_POINT ( 'NONE',  ( 0.000000000000000000, 0.000000000000000000, 8.000000000000000000 ) ) ;
#214 = LOCAL_TIME ( 19, 3, 29.00000000000000000, #125 ) ;
#215 = CARTESIAN_POINT ( 'NONE',  ( 13.00000000000000178, 1.592040838891559293E-15, 8.000000000000000000 ) ) ;
#216 = AXIS2_PLACEMENT_3D ( 'NONE', #47, #26, #200 ) ;
#217 = EDGE_CURVE ( 'NONE', #71, #149, #162, .T. ) ;
#218 = PERSON_AND_ORGANIZATION_ROLE ( 'classification_officer' ) ;
#219 = PERSON_AND_ORGANIZATION ( #69, #145 ) ;
#220 = APPROVAL_ROLE ( '' ) ;
#221 = CIRCLE ( 'NONE', #154, 10.00000000000000178 ) ;
#222 = DIRECTION ( 'NONE',  ( -1.000000000000000000, 0.000000000000000000, 0.000000000000000000 ) ) ;
#223 = CC_DESIGN_PERSON_AND_ORGANIZATION_ASSIGNMENT ( #219, #158, ( #44 ) ) ;
#224 = CARTESIAN_POINT ( 'NONE',  ( 10.00000000000000178, 1.224646799147353454E-15, 408.0000000000000568 ) ) ;
#225 = DIRECTION ( 'NONE',  ( 0.000000000000000000, 0.000000000000000000, 1.000000000000000000 ) ) ;
#226 = CYLINDRICAL_SURFACE ( 'NONE', #48, 10.00000000000000178 ) ;
#227 = ADVANCED_FACE ( 'NONE', ( #107 ), #9, .F. ) ;
#228 = AXIS2_PLACEMENT_3D ( 'NONE', #141, #96, #253 ) ;
#229 = DIRECTION ( 'NONE',  ( -0.000000000000000000, -0.000000000000000000, -1.000000000000000000 ) ) ;
#230 = VERTEX_POINT ( 'NONE', #99 ) ;
#231 = EDGE_LOOP ( 'NONE', ( #74, #171, #150, #192 ) ) ;
#232 = EDGE_LOOP ( 'NONE', ( #10, #70 ) ) ;
#233 = PERSON_AND_ORGANIZATION ( #69, #145 ) ;
#234 = APPROVAL_DATE_TIME ( #40, #25 ) ;
#235 = COORDINATED_UNIVERSAL_TIME_OFFSET ( 1, 0, .AHEAD. ) ;
#236 = APPLICATION_PROTOCOL_DEFINITION ( 'international standard', 'config_control_design', 1994, #146 ) ;
#237 = DIRECTION ( 'NONE',  ( 1.000000000000000000, 0.000000000000000000, 0.000000000000000000 ) ) ;
#238 =( NAMED_UNIT ( * ) SI_UNIT ( $, .STERADIAN. ) SOLID_ANGLE_UNIT ( ) );
#239 = CC_DESIGN_DATE_AND_TIME_ASSIGNMENT ( #84, #241, ( #243 ) ) ;
#240 = PLANE ( 'NONE',  #41 ) ;
#241 = DATE_TIME_ROLE ( 'creation_date' ) ;
#242 = DIRECTION ( 'NONE',  ( -1.000000000000000000, 0.000000000000000000, 0.000000000000000000 ) ) ;
#243 = PRODUCT_DEFINITION ( 'NEZNÁMÝ', '', #44, #174 ) ;
#244 = DIRECTION ( 'NONE',  ( 1.000000000000000000, 0.000000000000000000, -0.000000000000000000 ) ) ;
#245 = ORIENTED_EDGE ( 'NONE', *, *, #198, .F. ) ;
#246 = CC_DESIGN_DATE_AND_TIME_ASSIGNMENT ( #197, #139, ( #78 ) ) ;
#247 = CARTESIAN_POINT ( 'NONE',  ( 10.00000000000000178, 1.224646799147353454E-15, 8.000000000000000000 ) ) ;
#248 = DIRECTION ( 'NONE',  ( 1.000000000000000000, 0.000000000000000000, 0.000000000000000000 ) ) ;
#249 = DIRECTION ( 'NONE',  ( 1.000000000000000000, 0.000000000000000000, 0.000000000000000000 ) ) ;
#250 = APPROVAL_ROLE ( '' ) ;
#251 = MANIFOLD_SOLID_BREP ( 'Pøidat vysunutím3', #94 ) ;
#252 = PERSON_AND_ORGANIZATION_ROLE ( 'creator' ) ;
#253 = DIRECTION ( 'NONE',  ( 1.000000000000000000, 0.000000000000000000, 0.000000000000000000 ) ) ;
#254 = ADVANCED_FACE ( 'NONE', ( #144 ), #226, .T. ) ;
#255 = PLANE ( 'NONE',  #90 ) ;
ENDSEC;
END-ISO-10303-21;
