ISO-10303-21;
HEADER;
FILE_DESCRIPTION (( 'STEP AP203' ),
    '1' );
FILE_NAME ('7d80.STEP',
    '2022-07-07T17:28:42',
    ( '' ),
    ( '' ),
    'SwSTEP 2.0',
    'SolidWorks 2019',
    '' );
FILE_SCHEMA (( 'CONFIG_CONTROL_DESIGN' ));
ENDSEC;

DATA;
#1 = ORIENTED_EDGE ( 'NONE', *, *, #180, .F. ) ;
#2 = CYLINDRICAL_SURFACE ( 'NONE', #16, 4.500000000000000000 ) ;
#3 = ORIENTED_EDGE ( 'NONE', *, *, #180, .T. ) ;
#4 = CARTESIAN_POINT ( 'NONE',  ( 0.000000000000000000, 0.000000000000000000, 255.0000000000000000 ) ) ;
#5 = DESIGN_CONTEXT ( 'detailed design', #165, 'design' ) ;
#6 = SHAPE_DEFINITION_REPRESENTATION ( #151, #248 ) ;
#7 = DIRECTION ( 'NONE',  ( -1.000000000000000000, 0.000000000000000000, 0.000000000000000000 ) ) ;
#8 = PERSON_AND_ORGANIZATION ( #145, #230 ) ;
#9 = DATE_TIME_ROLE ( 'classification_date' ) ;
#10 = CC_DESIGN_SECURITY_CLASSIFICATION ( #111, ( #163 ) ) ;
#11 = COORDINATED_UNIVERSAL_TIME_OFFSET ( 1, 0, .AHEAD. ) ;
#12 = APPROVAL ( #148, 'NEURÈENÝ' ) ;
#13 = EDGE_LOOP ( 'NONE', ( #191, #130, #35, #245 ) ) ;
#14 = CLOSED_SHELL ( 'NONE', ( #68, #211, #153, #234, #167, #86, #127 ) ) ;
#15 = VERTEX_POINT ( 'NONE', #150 ) ;
#16 = AXIS2_PLACEMENT_3D ( 'NONE', #218, #49, #65 ) ;
#17 = LOCAL_TIME ( 19, 28, 42.00000000000000000, #11 ) ;
#18 = PRODUCT_RELATED_PRODUCT_CATEGORY ( 'detail', '', ( #197 ) ) ;
#19 = EDGE_LOOP ( 'NONE', ( #155, #74 ) ) ;
#20 = AXIS2_PLACEMENT_3D ( 'NONE', #164, #187, #7 ) ;
#21 = CIRCLE ( 'NONE', #53, 4.500000000000000000 ) ;
#22 = DIRECTION ( 'NONE',  ( 0.000000000000000000, 0.000000000000000000, 1.000000000000000000 ) ) ;
#23 = DIRECTION ( 'NONE',  ( 1.000000000000000000, 0.000000000000000000, -0.000000000000000000 ) ) ;
#24 = CARTESIAN_POINT ( 'NONE',  ( 7.000000000000000000, 8.572527594031473190E-16, 0.000000000000000000 ) ) ;
#25 = AXIS2_PLACEMENT_3D ( 'NONE', #133, #22, #23 ) ;
#26 = CARTESIAN_POINT ( 'NONE',  ( 0.000000000000000000, 0.000000000000000000, 5.000000000000000000 ) ) ;
#27 = VERTEX_POINT ( 'NONE', #101 ) ;
#28 = FACE_OUTER_BOUND ( 'NONE', #56, .T. ) ;
#29 = EDGE_CURVE ( 'NONE', #75, #204, #141, .T. ) ;
#30 = LINE ( 'NONE', #170, #184 ) ;
#31 = ORIENTED_EDGE ( 'NONE', *, *, #183, .T. ) ;
#32 = PERSON_AND_ORGANIZATION ( #145, #230 ) ;
#33 = AXIS2_PLACEMENT_3D ( 'NONE', #106, #142, #126 ) ;
#34 = EDGE_CURVE ( 'NONE', #228, #198, #138, .T. ) ;
#35 = ORIENTED_EDGE ( 'NONE', *, *, #29, .T. ) ;
#36 = CYLINDRICAL_SURFACE ( 'NONE', #100, 7.000000000000000000 ) ;
#37 = AXIS2_PLACEMENT_3D ( 'NONE', #26, #104, #242 ) ;
#38 = CARTESIAN_POINT ( 'NONE',  ( 7.000000000000000000, 8.572527594031473190E-16, 5.000000000000000000 ) ) ;
#39 = EDGE_CURVE ( 'NONE', #15, #204, #80, .T. ) ;
#40 = DIRECTION ( 'NONE',  ( -0.000000000000000000, -0.000000000000000000, -1.000000000000000000 ) ) ;
#41 = CC_DESIGN_DATE_AND_TIME_ASSIGNMENT ( #241, #9, ( #111 ) ) ;
#42 = DIRECTION ( 'NONE',  ( 1.000000000000000000, 0.000000000000000000, 0.000000000000000000 ) ) ;
#43 = CYLINDRICAL_SURFACE ( 'NONE', #20, 4.500000000000000000 ) ;
#44 = COORDINATED_UNIVERSAL_TIME_OFFSET ( 1, 0, .AHEAD. ) ;
#45 = FACE_OUTER_BOUND ( 'NONE', #13, .T. ) ;
#46 = AXIS2_PLACEMENT_3D ( 'NONE', #210, #123, #85 ) ;
#47 = APPROVAL_PERSON_ORGANIZATION ( #173, #243, #227 ) ;
#48 = DATE_AND_TIME ( #129, #225 ) ;
#49 = DIRECTION ( 'NONE',  ( -0.000000000000000000, -0.000000000000000000, -1.000000000000000000 ) ) ;
#50 = APPROVAL_DATE_TIME ( #186, #147 ) ;
#51 = CC_DESIGN_DATE_AND_TIME_ASSIGNMENT ( #48, #69, ( #199 ) ) ;
#52 = COORDINATED_UNIVERSAL_TIME_OFFSET ( 1, 0, .AHEAD. ) ;
#53 = AXIS2_PLACEMENT_3D ( 'NONE', #201, #116, #253 ) ;
#54 = EDGE_CURVE ( 'NONE', #252, #157, #235, .T. ) ;
#55 = AXIS2_PLACEMENT_3D ( 'NONE', #59, #158, #232 ) ;
#56 = EDGE_LOOP ( 'NONE', ( #156, #31 ) ) ;
#57 = FACE_OUTER_BOUND ( 'NONE', #174, .T. ) ;
#58 = FACE_OUTER_BOUND ( 'NONE', #115, .T. ) ;
#59 = CARTESIAN_POINT ( 'NONE',  ( 0.000000000000000000, 0.000000000000000000, 0.000000000000000000 ) ) ;
#60 = CARTESIAN_POINT ( 'NONE',  ( 0.000000000000000000, 0.000000000000000000, 5.000000000000000000 ) ) ;
#61 = EDGE_CURVE ( 'NONE', #198, #228, #81, .T. ) ;
#62 = DIRECTION ( 'NONE',  ( 0.000000000000000000, 0.000000000000000000, 1.000000000000000000 ) ) ;
#63 = ORIENTED_EDGE ( 'NONE', *, *, #61, .T. ) ;
#64 = APPLICATION_PROTOCOL_DEFINITION ( 'international standard', 'config_control_design', 1994, #165 ) ;
#65 = DIRECTION ( 'NONE',  ( -1.000000000000000000, 0.000000000000000000, 0.000000000000000000 ) ) ;
#66 = DIRECTION ( 'NONE',  ( -0.000000000000000000, -0.000000000000000000, -1.000000000000000000 ) ) ;
#67 = LOCAL_TIME ( 19, 28, 42.00000000000000000, #44 ) ;
#68 = ADVANCED_FACE ( 'NONE', ( #45 ), #2, .T. ) ;
#69 = DATE_TIME_ROLE ( 'creation_date' ) ;
#70 = PERSON_AND_ORGANIZATION_ROLE ( 'creator' ) ;
#71 = EDGE_LOOP ( 'NONE', ( #251, #176, #112, #105 ) ) ;
#72 = LOCAL_TIME ( 19, 28, 42.00000000000000000, #107 ) ;
#73 = ORIENTED_EDGE ( 'NONE', *, *, #137, .T. ) ;
#74 = ORIENTED_EDGE ( 'NONE', *, *, #29, .F. ) ;
#75 = VERTEX_POINT ( 'NONE', #206 ) ;
#76 = VECTOR ( 'NONE', #208, 1000.000000000000000 ) ;
#77 = CARTESIAN_POINT ( 'NONE',  ( 0.000000000000000000, 0.000000000000000000, 0.000000000000000000 ) ) ;
#78 = EDGE_CURVE ( 'NONE', #198, #252, #128, .T. ) ;
#79 = CC_DESIGN_APPROVAL ( #147, ( #199 ) ) ;
#80 = LINE ( 'NONE', #224, #193 ) ;
#81 = CIRCLE ( 'NONE', #124, 7.000000000000000000 ) ;
#82 = DIRECTION ( 'NONE',  ( 1.000000000000000000, 0.000000000000000000, -0.000000000000000000 ) ) ;
#83 = FACE_OUTER_BOUND ( 'NONE', #71, .T. ) ;
#84 = APPROVAL_DATE_TIME ( #125, #243 ) ;
#85 = DIRECTION ( 'NONE',  ( 1.000000000000000000, 0.000000000000000000, 0.000000000000000000 ) ) ;
#86 = ADVANCED_FACE ( 'NONE', ( #83 ), #43, .T. ) ;
#87 = CIRCLE ( 'NONE', #172, 4.500000000000000000 ) ;
#88 = CALENDAR_DATE ( 2022, 7, 7 ) ;
#89 = CALENDAR_DATE ( 2022, 7, 7 ) ;
#90 = PERSON_AND_ORGANIZATION_ROLE ( 'creator' ) ;
#91 = EDGE_CURVE ( 'NONE', #15, #27, #161, .T. ) ;
#92 = ORIENTED_EDGE ( 'NONE', *, *, #34, .F. ) ;
#93 = EDGE_LOOP ( 'NONE', ( #1, #110, #214, #231 ) ) ;
#94 = APPROVAL_PERSON_ORGANIZATION ( #226, #147, #188 ) ;
#95 =( NAMED_UNIT ( * ) SI_UNIT ( $, .STERADIAN. ) SOLID_ANGLE_UNIT ( ) );
#96 = DIRECTION ( 'NONE',  ( 1.000000000000000000, 0.000000000000000000, -0.000000000000000000 ) ) ;
#97 =( LENGTH_UNIT ( ) NAMED_UNIT ( * ) SI_UNIT ( .MILLI., .METRE. ) );
#98 = CC_DESIGN_PERSON_AND_ORGANIZATION_ASSIGNMENT ( #221, #90, ( #199 ) ) ;
#99 = CYLINDRICAL_SURFACE ( 'NONE', #237, 7.000000000000000000 ) ;
#100 = AXIS2_PLACEMENT_3D ( 'NONE', #114, #140, #135 ) ;
#101 = CARTESIAN_POINT ( 'NONE',  ( 4.500000000000000000, 5.510910596163088569E-16, 255.0000000000000000 ) ) ;
#102 = CC_DESIGN_PERSON_AND_ORGANIZATION_ASSIGNMENT ( #8, #171, ( #163 ) ) ;
#103 = DIRECTION ( 'NONE',  ( 1.000000000000000000, 0.000000000000000000, 0.000000000000000000 ) ) ;
#104 = DIRECTION ( 'NONE',  ( 0.000000000000000000, 0.000000000000000000, 1.000000000000000000 ) ) ;
#105 = ORIENTED_EDGE ( 'NONE', *, *, #131, .T. ) ;
#106 = CARTESIAN_POINT ( 'NONE',  ( 0.000000000000000000, 0.000000000000000000, 0.000000000000000000 ) ) ;
#107 = COORDINATED_UNIVERSAL_TIME_OFFSET ( 1, 0, .AHEAD. ) ;
#108 = CALENDAR_DATE ( 2022, 7, 7 ) ;
#109 = ORIENTED_EDGE ( 'NONE', *, *, #137, .F. ) ;
#110 = ORIENTED_EDGE ( 'NONE', *, *, #61, .F. ) ;
#111 = SECURITY_CLASSIFICATION ( '', '', #169 ) ;
#112 = ORIENTED_EDGE ( 'NONE', *, *, #39, .T. ) ;
#113 = EDGE_CURVE ( 'NONE', #27, #75, #30, .T. ) ;
#114 = CARTESIAN_POINT ( 'NONE',  ( 0.000000000000000000, 0.000000000000000000, 5.000000000000000000 ) ) ;
#115 = EDGE_LOOP ( 'NONE', ( #92, #3, #73, #229 ) ) ;
#116 = DIRECTION ( 'NONE',  ( 0.000000000000000000, 0.000000000000000000, 1.000000000000000000 ) ) ;
#117 = CARTESIAN_POINT ( 'NONE',  ( -4.500000000000000000, 0.000000000000000000, 5.000000000000000000 ) ) ;
#118 = PLANE ( 'NONE',  #250 ) ;
#119 = UNCERTAINTY_MEASURE_WITH_UNIT (LENGTH_MEASURE( 1.000000000000000082E-05 ), #97, 'distance_accuracy_value', 'NONE');
#120 = APPLICATION_PROTOCOL_DEFINITION ( 'international standard', 'config_control_design', 1994, #136 ) ;
#121 = PLANE ( 'NONE',  #217 ) ;
#122 = CARTESIAN_POINT ( 'NONE',  ( 0.000000000000000000, 0.000000000000000000, 0.000000000000000000 ) ) ;
#123 = DIRECTION ( 'NONE',  ( 0.000000000000000000, 0.000000000000000000, 1.000000000000000000 ) ) ;
#124 = AXIS2_PLACEMENT_3D ( 'NONE', #168, #220, #149 ) ;
#125 = DATE_AND_TIME ( #247, #67 ) ;
#126 = DIRECTION ( 'NONE',  ( 1.000000000000000000, 0.000000000000000000, 0.000000000000000000 ) ) ;
#127 = ADVANCED_FACE ( 'NONE', ( #28 ), #121, .T. ) ;
#128 = LINE ( 'NONE', #240, #76 ) ;
#129 = CALENDAR_DATE ( 2022, 7, 7 ) ;
#130 = ORIENTED_EDGE ( 'NONE', *, *, #113, .T. ) ;
#131 = EDGE_CURVE ( 'NONE', #204, #75, #87, .T. ) ;
#132 = LOCAL_TIME ( 19, 28, 42.00000000000000000, #246 ) ;
#133 = CARTESIAN_POINT ( 'NONE',  ( 0.000000000000000000, 0.000000000000000000, 5.000000000000000000 ) ) ;
#134 = MANIFOLD_SOLID_BREP ( 'Pøidat vysunutím3', #14 ) ;
#135 = DIRECTION ( 'NONE',  ( -1.000000000000000000, 0.000000000000000000, 0.000000000000000000 ) ) ;
#136 = APPLICATION_CONTEXT ( 'configuration controlled 3d designs of mechanical parts and assemblies' ) ;
#137 = EDGE_CURVE ( 'NONE', #157, #252, #139, .T. ) ;
#138 = CIRCLE ( 'NONE', #37, 7.000000000000000000 ) ;
#139 = CIRCLE ( 'NONE', #143, 7.000000000000000000 ) ;
#140 = DIRECTION ( 'NONE',  ( -0.000000000000000000, -0.000000000000000000, -1.000000000000000000 ) ) ;
#141 = CIRCLE ( 'NONE', #255, 4.500000000000000000 ) ;
#142 = DIRECTION ( 'NONE',  ( 0.000000000000000000, 0.000000000000000000, 1.000000000000000000 ) ) ;
#143 = AXIS2_PLACEMENT_3D ( 'NONE', #122, #146, #103 ) ;
#144 = APPROVAL_PERSON_ORGANIZATION ( #244, #12, #207 ) ;
#145 = PERSON ( 'NEURÈENÝ', 'NEURÈENÝ', 'NEURÈENÝ', ('NEURÈENÝ'), ('NEURÈENÝ'), ('NEURÈENÝ') ) ;
#146 = DIRECTION ( 'NONE',  ( 0.000000000000000000, 0.000000000000000000, 1.000000000000000000 ) ) ;
#147 = APPROVAL ( #154, 'NEURÈENÝ' ) ;
#148 = APPROVAL_STATUS ( 'not_yet_approved' ) ;
#149 = DIRECTION ( 'NONE',  ( 1.000000000000000000, 0.000000000000000000, 0.000000000000000000 ) ) ;
#150 = CARTESIAN_POINT ( 'NONE',  ( -4.500000000000000000, 0.000000000000000000, 255.0000000000000000 ) ) ;
#151 = PRODUCT_DEFINITION_SHAPE ( 'NONE', 'NONE',  #199 ) ;
#152 = APPROVAL_DATE_TIME ( #213, #12 ) ;
#153 = ADVANCED_FACE ( 'NONE', ( #162 ), #99, .T. ) ;
#154 = APPROVAL_STATUS ( 'not_yet_approved' ) ;
#155 = ORIENTED_EDGE ( 'NONE', *, *, #131, .F. ) ;
#156 = ORIENTED_EDGE ( 'NONE', *, *, #91, .T. ) ;
#157 = VERTEX_POINT ( 'NONE', #24 ) ;
#158 = DIRECTION ( 'NONE',  ( 0.000000000000000000, 0.000000000000000000, 1.000000000000000000 ) ) ;
#159 = DIRECTION ( 'NONE',  ( -0.000000000000000000, -0.000000000000000000, -1.000000000000000000 ) ) ;
#160 = DIRECTION ( 'NONE',  ( -1.000000000000000000, 0.000000000000000000, 0.000000000000000000 ) ) ;
#161 = CIRCLE ( 'NONE', #46, 4.500000000000000000 ) ;
#162 = FACE_OUTER_BOUND ( 'NONE', #93, .T. ) ;
#163 = PRODUCT_DEFINITION_FORMATION_WITH_SPECIFIED_SOURCE ( 'LIBOVOLNÝ', '', #197, .NOT_KNOWN. ) ;
#164 = CARTESIAN_POINT ( 'NONE',  ( 0.000000000000000000, 0.000000000000000000, 255.0000000000000000 ) ) ;
#165 = APPLICATION_CONTEXT ( 'configuration controlled 3d designs of mechanical parts and assemblies' ) ;
#166 = DIRECTION ( 'NONE',  ( 1.000000000000000000, 0.000000000000000000, 0.000000000000000000 ) ) ;
#167 = ADVANCED_FACE ( 'NONE', ( #57 ), #118, .F. ) ;
#168 = CARTESIAN_POINT ( 'NONE',  ( 0.000000000000000000, 0.000000000000000000, 5.000000000000000000 ) ) ;
#169 = SECURITY_CLASSIFICATION_LEVEL ( 'unclassified' ) ;
#170 = CARTESIAN_POINT ( 'NONE',  ( 4.500000000000000000, 5.510910596163088569E-16, 255.0000000000000000 ) ) ;
#171 = PERSON_AND_ORGANIZATION_ROLE ( 'design_supplier' ) ;
#172 = AXIS2_PLACEMENT_3D ( 'NONE', #238, #62, #42 ) ;
#173 = PERSON_AND_ORGANIZATION ( #145, #230 ) ;
#174 = EDGE_LOOP ( 'NONE', ( #175, #109 ) ) ;
#175 = ORIENTED_EDGE ( 'NONE', *, *, #54, .F. ) ;
#176 = ORIENTED_EDGE ( 'NONE', *, *, #91, .F. ) ;
#177 = FACE_OUTER_BOUND ( 'NONE', #249, .T. ) ;
#178 = VECTOR ( 'NONE', #40, 1000.000000000000000 ) ;
#179 = CARTESIAN_POINT ( 'NONE',  ( -7.000000000000000000, 0.000000000000000000, 0.000000000000000000 ) ) ;
#180 = EDGE_CURVE ( 'NONE', #228, #157, #196, .T. ) ;
#181 = CC_DESIGN_APPROVAL ( #12, ( #111 ) ) ;
#182 = DIRECTION ( 'NONE',  ( 0.000000000000000000, 0.000000000000000000, 1.000000000000000000 ) ) ;
#183 = EDGE_CURVE ( 'NONE', #27, #15, #21, .T. ) ;
#184 = VECTOR ( 'NONE', #66, 1000.000000000000000 ) ;
#185 = DIRECTION ( 'NONE',  ( -0.000000000000000000, -0.000000000000000000, -1.000000000000000000 ) ) ;
#186 = DATE_AND_TIME ( #108, #17 ) ;
#187 = DIRECTION ( 'NONE',  ( -0.000000000000000000, -0.000000000000000000, -1.000000000000000000 ) ) ;
#188 = APPROVAL_ROLE ( '' ) ;
#189 = PERSON_AND_ORGANIZATION ( #145, #230 ) ;
#190 = PERSON_AND_ORGANIZATION_ROLE ( 'design_owner' ) ;
#191 = ORIENTED_EDGE ( 'NONE', *, *, #183, .F. ) ;
#192 = CC_DESIGN_PERSON_AND_ORGANIZATION_ASSIGNMENT ( #209, #70, ( #163 ) ) ;
#193 = VECTOR ( 'NONE', #185, 1000.000000000000000 ) ;
#194 = CC_DESIGN_APPROVAL ( #243, ( #163 ) ) ;
#195 = ORIENTED_EDGE ( 'NONE', *, *, #34, .T. ) ;
#196 = LINE ( 'NONE', #38, #178 ) ;
#197 = PRODUCT ( '7d80', '7d80', '', ( #254 ) ) ;
#198 = VERTEX_POINT ( 'NONE', #236 ) ;
#199 = PRODUCT_DEFINITION ( 'NEZNÁMÝ', '', #163, #5 ) ;
#200 = FACE_BOUND ( 'NONE', #19, .T. ) ;
#201 = CARTESIAN_POINT ( 'NONE',  ( 0.000000000000000000, 0.000000000000000000, 255.0000000000000000 ) ) ;
#202 = CC_DESIGN_PERSON_AND_ORGANIZATION_ASSIGNMENT ( #189, #223, ( #111 ) ) ;
#203 = PLANE ( 'NONE',  #25 ) ;
#204 = VERTEX_POINT ( 'NONE', #117 ) ;
#205 = DIRECTION ( 'NONE',  ( 0.000000000000000000, 0.000000000000000000, 1.000000000000000000 ) ) ;
#206 = CARTESIAN_POINT ( 'NONE',  ( 4.500000000000000000, 5.510910596163088569E-16, 5.000000000000000000 ) ) ;
#207 = APPROVAL_ROLE ( '' ) ;
#208 = DIRECTION ( 'NONE',  ( -0.000000000000000000, -0.000000000000000000, -1.000000000000000000 ) ) ;
#209 = PERSON_AND_ORGANIZATION ( #145, #230 ) ;
#210 = CARTESIAN_POINT ( 'NONE',  ( 0.000000000000000000, 0.000000000000000000, 255.0000000000000000 ) ) ;
#211 = ADVANCED_FACE ( 'NONE', ( #58 ), #36, .T. ) ;
#212 = APPROVAL_STATUS ( 'not_yet_approved' ) ;
#213 = DATE_AND_TIME ( #89, #72 ) ;
#214 = ORIENTED_EDGE ( 'NONE', *, *, #78, .T. ) ;
#215 =( NAMED_UNIT ( * ) PLANE_ANGLE_UNIT ( ) SI_UNIT ( $, .RADIAN. ) );
#216 = CARTESIAN_POINT ( 'NONE',  ( 7.000000000000000000, 8.572527594031473190E-16, 5.000000000000000000 ) ) ;
#217 = AXIS2_PLACEMENT_3D ( 'NONE', #4, #205, #82 ) ;
#218 = CARTESIAN_POINT ( 'NONE',  ( 0.000000000000000000, 0.000000000000000000, 255.0000000000000000 ) ) ;
#219 = CC_DESIGN_PERSON_AND_ORGANIZATION_ASSIGNMENT ( #32, #190, ( #197 ) ) ;
#220 = DIRECTION ( 'NONE',  ( 0.000000000000000000, 0.000000000000000000, 1.000000000000000000 ) ) ;
#221 = PERSON_AND_ORGANIZATION ( #145, #230 ) ;
#222 = CARTESIAN_POINT ( 'NONE',  ( 0.000000000000000000, 0.000000000000000000, 5.000000000000000000 ) ) ;
#223 = PERSON_AND_ORGANIZATION_ROLE ( 'classification_officer' ) ;
#224 = CARTESIAN_POINT ( 'NONE',  ( -4.500000000000000000, 0.000000000000000000, 255.0000000000000000 ) ) ;
#225 = LOCAL_TIME ( 19, 28, 42.00000000000000000, #52 ) ;
#226 = PERSON_AND_ORGANIZATION ( #145, #230 ) ;
#227 = APPROVAL_ROLE ( '' ) ;
#228 = VERTEX_POINT ( 'NONE', #216 ) ;
#229 = ORIENTED_EDGE ( 'NONE', *, *, #78, .F. ) ;
#230 = ORGANIZATION ( 'NEURÈENÝ', 'NEURÈENÝ', '' ) ;
#231 = ORIENTED_EDGE ( 'NONE', *, *, #54, .T. ) ;
#232 = DIRECTION ( 'NONE',  ( 1.000000000000000000, 0.000000000000000000, 0.000000000000000000 ) ) ;
#233 = DIRECTION ( 'NONE',  ( 0.000000000000000000, 0.000000000000000000, 1.000000000000000000 ) ) ;
#234 = ADVANCED_FACE ( 'NONE', ( #200, #177 ), #203, .T. ) ;
#235 = CIRCLE ( 'NONE', #33, 7.000000000000000000 ) ;
#236 = CARTESIAN_POINT ( 'NONE',  ( -7.000000000000000000, 0.000000000000000000, 5.000000000000000000 ) ) ;
#237 = AXIS2_PLACEMENT_3D ( 'NONE', #60, #159, #160 ) ;
#238 = CARTESIAN_POINT ( 'NONE',  ( 0.000000000000000000, 0.000000000000000000, 5.000000000000000000 ) ) ;
#239 =( GEOMETRIC_REPRESENTATION_CONTEXT ( 3 ) GLOBAL_UNCERTAINTY_ASSIGNED_CONTEXT ( ( #119 ) ) GLOBAL_UNIT_ASSIGNED_CONTEXT ( ( #97, #215, #95 ) ) REPRESENTATION_CONTEXT ( 'NONE', 'WORKASPACE' ) );
#240 = CARTESIAN_POINT ( 'NONE',  ( -7.000000000000000000, 0.000000000000000000, 5.000000000000000000 ) ) ;
#241 = DATE_AND_TIME ( #88, #132 ) ;
#242 = DIRECTION ( 'NONE',  ( 1.000000000000000000, 0.000000000000000000, 0.000000000000000000 ) ) ;
#243 = APPROVAL ( #212, 'NEURÈENÝ' ) ;
#244 = PERSON_AND_ORGANIZATION ( #145, #230 ) ;
#245 = ORIENTED_EDGE ( 'NONE', *, *, #39, .F. ) ;
#246 = COORDINATED_UNIVERSAL_TIME_OFFSET ( 1, 0, .AHEAD. ) ;
#247 = CALENDAR_DATE ( 2022, 7, 7 ) ;
#248 = ADVANCED_BREP_SHAPE_REPRESENTATION ( '7d80', ( #134, #55 ), #239 ) ;
#249 = EDGE_LOOP ( 'NONE', ( #63, #195 ) ) ;
#250 = AXIS2_PLACEMENT_3D ( 'NONE', #77, #233, #96 ) ;
#251 = ORIENTED_EDGE ( 'NONE', *, *, #113, .F. ) ;
#252 = VERTEX_POINT ( 'NONE', #179 ) ;
#253 = DIRECTION ( 'NONE',  ( 1.000000000000000000, 0.000000000000000000, 0.000000000000000000 ) ) ;
#254 = MECHANICAL_CONTEXT ( 'NONE', #136, 'mechanical' ) ;
#255 = AXIS2_PLACEMENT_3D ( 'NONE', #222, #182, #166 ) ;
ENDSEC;
END-ISO-10303-21;
