ISO-10303-21;
HEADER;
FILE_DESCRIPTION (( 'STEP AP203' ),
    '1' );
FILE_NAME ('040a.STEP',
    '2022-07-07T17:36:34',
    ( '' ),
    ( '' ),
    'SwSTEP 2.0',
    'SolidWorks 2019',
    '' );
FILE_SCHEMA (( 'CONFIG_CONTROL_DESIGN' ));
ENDSEC;

DATA;
#1 = EDGE_CURVE ( 'NONE', #16, #14, #8, .T. ) ;
#2 = DIRECTION ( 'NONE',  ( 0.000000000000000000, 0.000000000000000000, 1.000000000000000000 ) ) ;
#3 = DIRECTION ( 'NONE',  ( -1.000000000000000000, 0.000000000000000000, 0.000000000000000000 ) ) ;
#4 = CC_DESIGN_PERSON_AND_ORGANIZATION_ASSIGNMENT ( #53, #147, ( #237 ) ) ;
#5 = AXIS2_PLACEMENT_3D ( 'NONE', #241, #230, #179 ) ;
#6 = CC_DESIGN_SECURITY_CLASSIFICATION ( #167, ( #237 ) ) ;
#7 = CARTESIAN_POINT ( 'NONE',  ( 0.000000000000000000, 0.000000000000000000, 5.000000000000000000 ) ) ;
#8 = CIRCLE ( 'NONE', #145, 6.000000000000000888 ) ;
#9 = CARTESIAN_POINT ( 'NONE',  ( 0.000000000000000000, 0.000000000000000000, 130.0000000000000000 ) ) ;
#10 = VERTEX_POINT ( 'NONE', #254 ) ;
#11 = APPLICATION_PROTOCOL_DEFINITION ( 'international standard', 'config_control_design', 1994, #79 ) ;
#12 = CYLINDRICAL_SURFACE ( 'NONE', #98, 6.000000000000000888 ) ;
#13 = CARTESIAN_POINT ( 'NONE',  ( 0.000000000000000000, 0.000000000000000000, 130.0000000000000000 ) ) ;
#14 = VERTEX_POINT ( 'NONE', #20 ) ;
#15 = APPLICATION_PROTOCOL_DEFINITION ( 'international standard', 'config_control_design', 1994, #48 ) ;
#16 = VERTEX_POINT ( 'NONE', #233 ) ;
#17 = EDGE_LOOP ( 'NONE', ( #70, #30 ) ) ;
#18 = APPROVAL_PERSON_ORGANIZATION ( #243, #197, #19 ) ;
#19 = APPROVAL_ROLE ( '' ) ;
#20 = CARTESIAN_POINT ( 'NONE',  ( -6.000000000000000888, 0.000000000000000000, 5.000000000000000000 ) ) ;
#21 = AXIS2_PLACEMENT_3D ( 'NONE', #90, #168, #115 ) ;
#22 = ORIENTED_EDGE ( 'NONE', *, *, #227, .T. ) ;
#23 = ADVANCED_FACE ( 'NONE', ( #158 ), #60, .T. ) ;
#24 = DIRECTION ( 'NONE',  ( 1.000000000000000000, 0.000000000000000000, -0.000000000000000000 ) ) ;
#25 = CARTESIAN_POINT ( 'NONE',  ( 6.000000000000000888, 7.347880794884120722E-16, 5.000000000000000000 ) ) ;
#26 = CIRCLE ( 'NONE', #81, 3.500000000000000000 ) ;
#27 = CARTESIAN_POINT ( 'NONE',  ( -6.000000000000000888, 0.000000000000000000, 0.000000000000000000 ) ) ;
#28 = AXIS2_PLACEMENT_3D ( 'NONE', #7, #49, #113 ) ;
#29 = ADVANCED_FACE ( 'NONE', ( #148 ), #12, .T. ) ;
#30 = ORIENTED_EDGE ( 'NONE', *, *, #97, .F. ) ;
#31 = PERSON_AND_ORGANIZATION ( #248, #137 ) ;
#32 = DIRECTION ( 'NONE',  ( 0.000000000000000000, 0.000000000000000000, 1.000000000000000000 ) ) ;
#33 = DIRECTION ( 'NONE',  ( 0.000000000000000000, 0.000000000000000000, 1.000000000000000000 ) ) ;
#34 = PERSON_AND_ORGANIZATION_ROLE ( 'design_supplier' ) ;
#35 = CARTESIAN_POINT ( 'NONE',  ( 0.000000000000000000, 0.000000000000000000, 130.0000000000000000 ) ) ;
#36 = EDGE_LOOP ( 'NONE', ( #207, #72 ) ) ;
#37 = APPROVAL ( #153, 'NEURÈENÝ' ) ;
#38 = COORDINATED_UNIVERSAL_TIME_OFFSET ( 1, 0, .AHEAD. ) ;
#39 = CARTESIAN_POINT ( 'NONE',  ( 0.000000000000000000, 0.000000000000000000, 5.000000000000000000 ) ) ;
#40 = CC_DESIGN_PERSON_AND_ORGANIZATION_ASSIGNMENT ( #135, #74, ( #183 ) ) ;
#41 = CIRCLE ( 'NONE', #178, 3.500000000000000000 ) ;
#42 = CC_DESIGN_APPROVAL ( #37, ( #237 ) ) ;
#43 = AXIS2_PLACEMENT_3D ( 'NONE', #9, #96, #75 ) ;
#44 = DIRECTION ( 'NONE',  ( 0.000000000000000000, 0.000000000000000000, 1.000000000000000000 ) ) ;
#45 = EDGE_CURVE ( 'NONE', #245, #171, #166, .T. ) ;
#46 = LINE ( 'NONE', #203, #161 ) ;
#47 = CYLINDRICAL_SURFACE ( 'NONE', #5, 6.000000000000000888 ) ;
#48 = APPLICATION_CONTEXT ( 'configuration controlled 3d designs of mechanical parts and assemblies' ) ;
#49 = DIRECTION ( 'NONE',  ( 0.000000000000000000, 0.000000000000000000, 1.000000000000000000 ) ) ;
#50 = DATE_TIME_ROLE ( 'classification_date' ) ;
#51 = APPROVAL_PERSON_ORGANIZATION ( #143, #217, #106 ) ;
#52 = CC_DESIGN_PERSON_AND_ORGANIZATION_ASSIGNMENT ( #89, #246, ( #167 ) ) ;
#53 = PERSON_AND_ORGANIZATION ( #248, #137 ) ;
#54 = CARTESIAN_POINT ( 'NONE',  ( 3.500000000000000000, 4.286263797015736595E-16, 130.0000000000000000 ) ) ;
#55 = CALENDAR_DATE ( 2022, 7, 7 ) ;
#56 = ORIENTED_EDGE ( 'NONE', *, *, #117, .T. ) ;
#57 = DIRECTION ( 'NONE',  ( 0.000000000000000000, 0.000000000000000000, 1.000000000000000000 ) ) ;
#58 = ORIENTED_EDGE ( 'NONE', *, *, #45, .T. ) ;
#59 = DIRECTION ( 'NONE',  ( 1.000000000000000000, 0.000000000000000000, 0.000000000000000000 ) ) ;
#60 = CYLINDRICAL_SURFACE ( 'NONE', #43, 3.500000000000000000 ) ;
#61 = LOCAL_TIME ( 19, 36, 34.00000000000000000, #67 ) ;
#62 = PLANE ( 'NONE',  #151 ) ;
#63 = PRODUCT ( '040a', '040a', '', ( #225 ) ) ;
#64 = DIRECTION ( 'NONE',  ( 0.000000000000000000, 0.000000000000000000, 1.000000000000000000 ) ) ;
#65 = DATE_AND_TIME ( #182, #61 ) ;
#66 = DIRECTION ( 'NONE',  ( 0.000000000000000000, 0.000000000000000000, 1.000000000000000000 ) ) ;
#67 = COORDINATED_UNIVERSAL_TIME_OFFSET ( 1, 0, .AHEAD. ) ;
#68 = DATE_TIME_ROLE ( 'creation_date' ) ;
#69 = ORIENTED_EDGE ( 'NONE', *, *, #172, .T. ) ;
#70 = ORIENTED_EDGE ( 'NONE', *, *, #208, .F. ) ;
#71 = DIRECTION ( 'NONE',  ( 0.000000000000000000, 0.000000000000000000, 1.000000000000000000 ) ) ;
#72 = ORIENTED_EDGE ( 'NONE', *, *, #1, .T. ) ;
#73 = CARTESIAN_POINT ( 'NONE',  ( 3.500000000000000000, 4.286263797015736595E-16, 130.0000000000000000 ) ) ;
#74 = PERSON_AND_ORGANIZATION_ROLE ( 'creator' ) ;
#75 = DIRECTION ( 'NONE',  ( -1.000000000000000000, 0.000000000000000000, 0.000000000000000000 ) ) ;
#76 = AXIS2_PLACEMENT_3D ( 'NONE', #212, #71, #59 ) ;
#77 = APPROVAL_STATUS ( 'not_yet_approved' ) ;
#78 = ORIENTED_EDGE ( 'NONE', *, *, #97, .T. ) ;
#79 = APPLICATION_CONTEXT ( 'configuration controlled 3d designs of mechanical parts and assemblies' ) ;
#80 = EDGE_CURVE ( 'NONE', #190, #245, #193, .T. ) ;
#81 = AXIS2_PLACEMENT_3D ( 'NONE', #127, #33, #133 ) ;
#82 = AXIS2_PLACEMENT_3D ( 'NONE', #164, #2, #100 ) ;
#83 = LOCAL_TIME ( 19, 36, 34.00000000000000000, #38 ) ;
#84 = DIRECTION ( 'NONE',  ( -0.000000000000000000, -0.000000000000000000, -1.000000000000000000 ) ) ;
#85 = AXIS2_PLACEMENT_3D ( 'NONE', #35, #32, #112 ) ;
#86 = DIRECTION ( 'NONE',  ( 0.000000000000000000, 0.000000000000000000, 1.000000000000000000 ) ) ;
#87 = CARTESIAN_POINT ( 'NONE',  ( 3.500000000000000000, 4.286263797015736595E-16, 5.000000000000000000 ) ) ;
#88 = EDGE_LOOP ( 'NONE', ( #244, #22, #78, #132 ) ) ;
#89 = PERSON_AND_ORGANIZATION ( #248, #137 ) ;
#90 = CARTESIAN_POINT ( 'NONE',  ( 0.000000000000000000, 0.000000000000000000, 0.000000000000000000 ) ) ;
#91 = FACE_OUTER_BOUND ( 'NONE', #251, .T. ) ;
#92 = ORIENTED_EDGE ( 'NONE', *, *, #156, .F. ) ;
#93 = EDGE_LOOP ( 'NONE', ( #213, #247, #69, #192 ) ) ;
#94 = CC_DESIGN_APPROVAL ( #197, ( #183 ) ) ;
#95 = APPROVAL_ROLE ( '' ) ;
#96 = DIRECTION ( 'NONE',  ( -0.000000000000000000, -0.000000000000000000, -1.000000000000000000 ) ) ;
#97 = EDGE_CURVE ( 'NONE', #134, #185, #119, .T. ) ;
#98 = AXIS2_PLACEMENT_3D ( 'NONE', #187, #226, #195 ) ;
#99 = ORIENTED_EDGE ( 'NONE', *, *, #172, .F. ) ;
#100 = DIRECTION ( 'NONE',  ( 1.000000000000000000, 0.000000000000000000, 0.000000000000000000 ) ) ;
#101 = CYLINDRICAL_SURFACE ( 'NONE', #196, 3.500000000000000000 ) ;
#102 = CIRCLE ( 'NONE', #82, 3.500000000000000000 ) ;
#103 = FACE_OUTER_BOUND ( 'NONE', #154, .T. ) ;
#104 = EDGE_CURVE ( 'NONE', #245, #190, #26, .T. ) ;
#105 = SHAPE_DEFINITION_REPRESENTATION ( #124, #236 ) ;
#106 = APPROVAL_ROLE ( '' ) ;
#107 = ORIENTED_EDGE ( 'NONE', *, *, #104, .T. ) ;
#108 = DATE_AND_TIME ( #55, #174 ) ;
#109 = ORIENTED_EDGE ( 'NONE', *, *, #198, .F. ) ;
#110 = PRODUCT_RELATED_PRODUCT_CATEGORY ( 'detail', '', ( #63 ) ) ;
#111 = SECURITY_CLASSIFICATION_LEVEL ( 'unclassified' ) ;
#112 = DIRECTION ( 'NONE',  ( 1.000000000000000000, 0.000000000000000000, 0.000000000000000000 ) ) ;
#113 = DIRECTION ( 'NONE',  ( 1.000000000000000000, 0.000000000000000000, 0.000000000000000000 ) ) ;
#114 =( LENGTH_UNIT ( ) NAMED_UNIT ( * ) SI_UNIT ( .MILLI., .METRE. ) );
#115 = DIRECTION ( 'NONE',  ( 1.000000000000000000, 0.000000000000000000, 0.000000000000000000 ) ) ;
#116 = ORIENTED_EDGE ( 'NONE', *, *, #227, .F. ) ;
#117 = EDGE_CURVE ( 'NONE', #14, #185, #46, .T. ) ;
#118 = LOCAL_TIME ( 19, 36, 34.00000000000000000, #149 ) ;
#119 = CIRCLE ( 'NONE', #21, 6.000000000000000888 ) ;
#120 = AXIS2_PLACEMENT_3D ( 'NONE', #126, #66, #169 ) ;
#121 = FACE_OUTER_BOUND ( 'NONE', #229, .T. ) ;
#122 = APPROVAL_STATUS ( 'not_yet_approved' ) ;
#123 = CARTESIAN_POINT ( 'NONE',  ( 0.000000000000000000, 0.000000000000000000, 0.000000000000000000 ) ) ;
#124 = PRODUCT_DEFINITION_SHAPE ( 'NONE', 'NONE',  #183 ) ;
#125 = ADVANCED_FACE ( 'NONE', ( #121 ), #62, .T. ) ;
#126 = CARTESIAN_POINT ( 'NONE',  ( 0.000000000000000000, 0.000000000000000000, 0.000000000000000000 ) ) ;
#127 = CARTESIAN_POINT ( 'NONE',  ( 0.000000000000000000, 0.000000000000000000, 130.0000000000000000 ) ) ;
#128 = CALENDAR_DATE ( 2022, 7, 7 ) ;
#129 = DIRECTION ( 'NONE',  ( -0.000000000000000000, -0.000000000000000000, -1.000000000000000000 ) ) ;
#130 = VECTOR ( 'NONE', #129, 1000.000000000000000 ) ;
#131 = APPROVAL_DATE_TIME ( #108, #197 ) ;
#132 = ORIENTED_EDGE ( 'NONE', *, *, #117, .F. ) ;
#133 = DIRECTION ( 'NONE',  ( 1.000000000000000000, 0.000000000000000000, 0.000000000000000000 ) ) ;
#134 = VERTEX_POINT ( 'NONE', #176 ) ;
#135 = PERSON_AND_ORGANIZATION ( #248, #137 ) ;
#136 = ORIENTED_EDGE ( 'NONE', *, *, #80, .T. ) ;
#137 = ORGANIZATION ( 'NEURÈENÝ', 'NEURÈENÝ', '' ) ;
#138 = CC_DESIGN_APPROVAL ( #217, ( #167 ) ) ;
#139 = CLOSED_SHELL ( 'NONE', ( #204, #29, #199, #220, #218, #23, #125 ) ) ;
#140 = CARTESIAN_POINT ( 'NONE',  ( 0.000000000000000000, 0.000000000000000000, 5.000000000000000000 ) ) ;
#141 = MANIFOLD_SOLID_BREP ( 'Pøidat vysunutím3', #139 ) ;
#142 = FACE_OUTER_BOUND ( 'NONE', #17, .T. ) ;
#143 = PERSON_AND_ORGANIZATION ( #248, #137 ) ;
#144 = DIRECTION ( 'NONE',  ( 1.000000000000000000, 0.000000000000000000, 0.000000000000000000 ) ) ;
#145 = AXIS2_PLACEMENT_3D ( 'NONE', #39, #232, #211 ) ;
#146 = APPROVAL_DATE_TIME ( #65, #217 ) ;
#147 = PERSON_AND_ORGANIZATION_ROLE ( 'creator' ) ;
#148 = FACE_OUTER_BOUND ( 'NONE', #88, .T. ) ;
#149 = COORDINATED_UNIVERSAL_TIME_OFFSET ( 1, 0, .AHEAD. ) ;
#150 = ORIENTED_EDGE ( 'NONE', *, *, #208, .T. ) ;
#151 = AXIS2_PLACEMENT_3D ( 'NONE', #200, #44, #24 ) ;
#152 = PLANE ( 'NONE',  #120 ) ;
#153 = APPROVAL_STATUS ( 'not_yet_approved' ) ;
#154 = EDGE_LOOP ( 'NONE', ( #116, #177, #56, #150 ) ) ;
#155 = CIRCLE ( 'NONE', #28, 6.000000000000000888 ) ;
#156 = EDGE_CURVE ( 'NONE', #10, #171, #41, .T. ) ;
#157 =( NAMED_UNIT ( * ) PLANE_ANGLE_UNIT ( ) SI_UNIT ( $, .RADIAN. ) );
#158 = FACE_OUTER_BOUND ( 'NONE', #93, .T. ) ;
#159 = APPROVAL_PERSON_ORGANIZATION ( #194, #37, #95 ) ;
#160 = CC_DESIGN_PERSON_AND_ORGANIZATION_ASSIGNMENT ( #31, #34, ( #237 ) ) ;
#161 = VECTOR ( 'NONE', #188, 1000.000000000000000 ) ;
#162 = CARTESIAN_POINT ( 'NONE',  ( -3.500000000000000000, 0.000000000000000000, 130.0000000000000000 ) ) ;
#163 = CARTESIAN_POINT ( 'NONE',  ( 0.000000000000000000, 0.000000000000000000, 5.000000000000000000 ) ) ;
#164 = CARTESIAN_POINT ( 'NONE',  ( 0.000000000000000000, 0.000000000000000000, 5.000000000000000000 ) ) ;
#165 = PERSON_AND_ORGANIZATION_ROLE ( 'design_owner' ) ;
#166 = LINE ( 'NONE', #54, #130 ) ;
#167 = SECURITY_CLASSIFICATION ( '', '', #111 ) ;
#168 = DIRECTION ( 'NONE',  ( 0.000000000000000000, 0.000000000000000000, 1.000000000000000000 ) ) ;
#169 = DIRECTION ( 'NONE',  ( 1.000000000000000000, 0.000000000000000000, -0.000000000000000000 ) ) ;
#170 = CALENDAR_DATE ( 2022, 7, 7 ) ;
#171 = VERTEX_POINT ( 'NONE', #87 ) ;
#172 = EDGE_CURVE ( 'NONE', #190, #10, #219, .T. ) ;
#173 = ORIENTED_EDGE ( 'NONE', *, *, #198, .T. ) ;
#174 = LOCAL_TIME ( 19, 36, 34.00000000000000000, #231 ) ;
#175 = LOCAL_TIME ( 19, 36, 34.00000000000000000, #189 ) ;
#176 = CARTESIAN_POINT ( 'NONE',  ( 6.000000000000000888, 7.347880794884120722E-16, 0.000000000000000000 ) ) ;
#177 = ORIENTED_EDGE ( 'NONE', *, *, #234, .F. ) ;
#178 = AXIS2_PLACEMENT_3D ( 'NONE', #140, #64, #144 ) ;
#179 = DIRECTION ( 'NONE',  ( -1.000000000000000000, 0.000000000000000000, 0.000000000000000000 ) ) ;
#180 =( GEOMETRIC_REPRESENTATION_CONTEXT ( 3 ) GLOBAL_UNCERTAINTY_ASSIGNED_CONTEXT ( ( #215 ) ) GLOBAL_UNIT_ASSIGNED_CONTEXT ( ( #114, #157, #205 ) ) REPRESENTATION_CONTEXT ( 'NONE', 'WORKASPACE' ) );
#181 = FACE_OUTER_BOUND ( 'NONE', #36, .T. ) ;
#182 = CALENDAR_DATE ( 2022, 7, 7 ) ;
#183 = PRODUCT_DEFINITION ( 'NEZNÁMÝ', '', #237, #253 ) ;
#184 = APPROVAL_DATE_TIME ( #210, #37 ) ;
#185 = VERTEX_POINT ( 'NONE', #27 ) ;
#186 = CIRCLE ( 'NONE', #235, 6.000000000000000888 ) ;
#187 = CARTESIAN_POINT ( 'NONE',  ( 0.000000000000000000, 0.000000000000000000, 5.000000000000000000 ) ) ;
#188 = DIRECTION ( 'NONE',  ( -0.000000000000000000, -0.000000000000000000, -1.000000000000000000 ) ) ;
#189 = COORDINATED_UNIVERSAL_TIME_OFFSET ( 1, 0, .AHEAD. ) ;
#190 = VERTEX_POINT ( 'NONE', #162 ) ;
#191 = CC_DESIGN_DATE_AND_TIME_ASSIGNMENT ( #214, #68, ( #183 ) ) ;
#192 = ORIENTED_EDGE ( 'NONE', *, *, #156, .T. ) ;
#193 = CIRCLE ( 'NONE', #85, 3.500000000000000000 ) ;
#194 = PERSON_AND_ORGANIZATION ( #248, #137 ) ;
#195 = DIRECTION ( 'NONE',  ( -1.000000000000000000, 0.000000000000000000, 0.000000000000000000 ) ) ;
#196 = AXIS2_PLACEMENT_3D ( 'NONE', #13, #84, #3 ) ;
#197 = APPROVAL ( #77, 'NEURÈENÝ' ) ;
#198 = EDGE_CURVE ( 'NONE', #171, #10, #102, .T. ) ;
#199 = ADVANCED_FACE ( 'NONE', ( #103 ), #47, .T. ) ;
#200 = CARTESIAN_POINT ( 'NONE',  ( 0.000000000000000000, 0.000000000000000000, 130.0000000000000000 ) ) ;
#201 = PLANE ( 'NONE',  #242 ) ;
#202 = VECTOR ( 'NONE', #240, 1000.000000000000000 ) ;
#203 = CARTESIAN_POINT ( 'NONE',  ( -6.000000000000000888, 0.000000000000000000, 5.000000000000000000 ) ) ;
#204 = ADVANCED_FACE ( 'NONE', ( #91 ), #101, .T. ) ;
#205 =( NAMED_UNIT ( * ) SI_UNIT ( $, .STERADIAN. ) SOLID_ANGLE_UNIT ( ) );
#206 = ORIENTED_EDGE ( 'NONE', *, *, #104, .F. ) ;
#207 = ORIENTED_EDGE ( 'NONE', *, *, #234, .T. ) ;
#208 = EDGE_CURVE ( 'NONE', #185, #134, #186, .T. ) ;
#209 = DIRECTION ( 'NONE',  ( -0.000000000000000000, -0.000000000000000000, -1.000000000000000000 ) ) ;
#210 = DATE_AND_TIME ( #228, #83 ) ;
#211 = DIRECTION ( 'NONE',  ( 1.000000000000000000, 0.000000000000000000, 0.000000000000000000 ) ) ;
#212 = CARTESIAN_POINT ( 'NONE',  ( 0.000000000000000000, 0.000000000000000000, 0.000000000000000000 ) ) ;
#213 = ORIENTED_EDGE ( 'NONE', *, *, #45, .F. ) ;
#214 = DATE_AND_TIME ( #128, #118 ) ;
#215 = UNCERTAINTY_MEASURE_WITH_UNIT (LENGTH_MEASURE( 1.000000000000000082E-05 ), #114, 'distance_accuracy_value', 'NONE');
#216 = EDGE_LOOP ( 'NONE', ( #92, #109 ) ) ;
#217 = APPROVAL ( #122, 'NEURÈENÝ' ) ;
#218 = ADVANCED_FACE ( 'NONE', ( #142 ), #152, .F. ) ;
#219 = LINE ( 'NONE', #222, #202 ) ;
#220 = ADVANCED_FACE ( 'NONE', ( #221, #181 ), #201, .T. ) ;
#221 = FACE_BOUND ( 'NONE', #216, .T. ) ;
#222 = CARTESIAN_POINT ( 'NONE',  ( -3.500000000000000000, 0.000000000000000000, 130.0000000000000000 ) ) ;
#223 = DIRECTION ( 'NONE',  ( 1.000000000000000000, 0.000000000000000000, -0.000000000000000000 ) ) ;
#224 = VECTOR ( 'NONE', #209, 1000.000000000000000 ) ;
#225 = MECHANICAL_CONTEXT ( 'NONE', #48, 'mechanical' ) ;
#226 = DIRECTION ( 'NONE',  ( -0.000000000000000000, -0.000000000000000000, -1.000000000000000000 ) ) ;
#227 = EDGE_CURVE ( 'NONE', #16, #134, #249, .T. ) ;
#228 = CALENDAR_DATE ( 2022, 7, 7 ) ;
#229 = EDGE_LOOP ( 'NONE', ( #136, #107 ) ) ;
#230 = DIRECTION ( 'NONE',  ( -0.000000000000000000, -0.000000000000000000, -1.000000000000000000 ) ) ;
#231 = COORDINATED_UNIVERSAL_TIME_OFFSET ( 1, 0, .AHEAD. ) ;
#232 = DIRECTION ( 'NONE',  ( 0.000000000000000000, 0.000000000000000000, 1.000000000000000000 ) ) ;
#233 = CARTESIAN_POINT ( 'NONE',  ( 6.000000000000000888, 7.347880794884120722E-16, 5.000000000000000000 ) ) ;
#234 = EDGE_CURVE ( 'NONE', #14, #16, #155, .T. ) ;
#235 = AXIS2_PLACEMENT_3D ( 'NONE', #123, #86, #239 ) ;
#236 = ADVANCED_BREP_SHAPE_REPRESENTATION ( '040a', ( #141, #76 ), #180 ) ;
#237 = PRODUCT_DEFINITION_FORMATION_WITH_SPECIFIED_SOURCE ( 'LIBOVOLNÝ', '', #63, .NOT_KNOWN. ) ;
#238 = CC_DESIGN_PERSON_AND_ORGANIZATION_ASSIGNMENT ( #252, #165, ( #63 ) ) ;
#239 = DIRECTION ( 'NONE',  ( 1.000000000000000000, 0.000000000000000000, 0.000000000000000000 ) ) ;
#240 = DIRECTION ( 'NONE',  ( -0.000000000000000000, -0.000000000000000000, -1.000000000000000000 ) ) ;
#241 = CARTESIAN_POINT ( 'NONE',  ( 0.000000000000000000, 0.000000000000000000, 5.000000000000000000 ) ) ;
#242 = AXIS2_PLACEMENT_3D ( 'NONE', #163, #57, #223 ) ;
#243 = PERSON_AND_ORGANIZATION ( #248, #137 ) ;
#244 = ORIENTED_EDGE ( 'NONE', *, *, #1, .F. ) ;
#245 = VERTEX_POINT ( 'NONE', #73 ) ;
#246 = PERSON_AND_ORGANIZATION_ROLE ( 'classification_officer' ) ;
#247 = ORIENTED_EDGE ( 'NONE', *, *, #80, .F. ) ;
#248 = PERSON ( 'NEURÈENÝ', 'NEURÈENÝ', 'NEURÈENÝ', ('NEURÈENÝ'), ('NEURÈENÝ'), ('NEURÈENÝ') ) ;
#249 = LINE ( 'NONE', #25, #224 ) ;
#250 = DATE_AND_TIME ( #170, #175 ) ;
#251 = EDGE_LOOP ( 'NONE', ( #206, #58, #173, #99 ) ) ;
#252 = PERSON_AND_ORGANIZATION ( #248, #137 ) ;
#253 = DESIGN_CONTEXT ( 'detailed design', #79, 'design' ) ;
#254 = CARTESIAN_POINT ( 'NONE',  ( -3.500000000000000000, 0.000000000000000000, 5.000000000000000000 ) ) ;
#255 = CC_DESIGN_DATE_AND_TIME_ASSIGNMENT ( #250, #50, ( #167 ) ) ;
ENDSEC;
END-ISO-10303-21;
