ISO-10303-21;
HEADER;
FILE_DESCRIPTION (( 'STEP AP203' ),
    '1' );
FILE_NAME ('894d.STEP',
    '2022-07-07T17:04:21',
    ( '' ),
    ( '' ),
    'SwSTEP 2.0',
    'SolidWorks 2019',
    '' );
FILE_SCHEMA (( 'CONFIG_CONTROL_DESIGN' ));
ENDSEC;

DATA;
#1 = AXIS2_PLACEMENT_3D ( 'NONE', #80, #196, #57 ) ;
#2 = CARTESIAN_POINT ( 'NONE',  ( 0.000000000000000000, 0.000000000000000000, 8.000000000000000000 ) ) ;
#3 = PERSON_AND_ORGANIZATION_ROLE ( 'design_supplier' ) ;
#4 = EDGE_CURVE ( 'NONE', #150, #244, #108, .T. ) ;
#5 = PERSON ( 'NEURÈENÝ', 'NEURÈENÝ', 'NEURÈENÝ', ('NEURÈENÝ'), ('NEURÈENÝ'), ('NEURÈENÝ') ) ;
#6 = ADVANCED_FACE ( 'NONE', ( #195 ), #33, .F. ) ;
#7 = APPROVAL_DATE_TIME ( #30, #207 ) ;
#8 = UNCERTAINTY_MEASURE_WITH_UNIT (LENGTH_MEASURE( 1.000000000000000082E-05 ), #242, 'distance_accuracy_value', 'NONE');
#9 = CIRCLE ( 'NONE', #181, 10.00000000000000178 ) ;
#10 = LOCAL_TIME ( 19, 4, 21.00000000000000000, #188 ) ;
#11 = ORIENTED_EDGE ( 'NONE', *, *, #169, .F. ) ;
#12 = LINE ( 'NONE', #173, #123 ) ;
#13 = VERTEX_POINT ( 'NONE', #231 ) ;
#14 = PLANE ( 'NONE',  #67 ) ;
#15 = ORIENTED_EDGE ( 'NONE', *, *, #73, .F. ) ;
#16 = DIRECTION ( 'NONE',  ( 1.000000000000000000, 0.000000000000000000, -0.000000000000000000 ) ) ;
#17 = EDGE_CURVE ( 'NONE', #233, #127, #12, .T. ) ;
#18 = DATE_TIME_ROLE ( 'creation_date' ) ;
#19 = LINE ( 'NONE', #132, #182 ) ;
#20 = APPLICATION_PROTOCOL_DEFINITION ( 'international standard', 'config_control_design', 1994, #240 ) ;
#21 = DIRECTION ( 'NONE',  ( 0.000000000000000000, 0.000000000000000000, 1.000000000000000000 ) ) ;
#22 = ADVANCED_FACE ( 'NONE', ( #197 ), #99, .T. ) ;
#23 = APPROVAL_PERSON_ORGANIZATION ( #177, #210, #179 ) ;
#24 = PERSON_AND_ORGANIZATION ( #5, #129 ) ;
#25 = PERSON_AND_ORGANIZATION ( #5, #129 ) ;
#26 = CLOSED_SHELL ( 'NONE', ( #71, #22, #93, #222, #6, #225, #55 ) ) ;
#27 = AXIS2_PLACEMENT_3D ( 'NONE', #87, #252, #157 ) ;
#28 = APPROVAL_STATUS ( 'not_yet_approved' ) ;
#29 = CC_DESIGN_SECURITY_CLASSIFICATION ( #44, ( #107 ) ) ;
#30 = DATE_AND_TIME ( #66, #10 ) ;
#31 = ORIENTED_EDGE ( 'NONE', *, *, #205, .T. ) ;
#32 = AXIS2_PLACEMENT_3D ( 'NONE', #2, #137, #153 ) ;
#33 = PLANE ( 'NONE',  #247 ) ;
#34 = MANIFOLD_SOLID_BREP ( 'Pøidat vysunutím3', #26 ) ;
#35 = ORIENTED_EDGE ( 'NONE', *, *, #187, .F. ) ;
#36 = CARTESIAN_POINT ( 'NONE',  ( 13.00000000000000178, 1.592040838891559293E-15, 8.000000000000000000 ) ) ;
#37 = CARTESIAN_POINT ( 'NONE',  ( -10.00000000000000178, 0.000000000000000000, 108.0000000000000142 ) ) ;
#38 = EDGE_CURVE ( 'NONE', #127, #149, #125, .T. ) ;
#39 = DIRECTION ( 'NONE',  ( 1.000000000000000000, 0.000000000000000000, 0.000000000000000000 ) ) ;
#40 = CIRCLE ( 'NONE', #32, 10.00000000000000178 ) ;
#41 = CARTESIAN_POINT ( 'NONE',  ( 0.000000000000000000, 0.000000000000000000, 8.000000000000000000 ) ) ;
#42 = DIRECTION ( 'NONE',  ( -0.000000000000000000, -0.000000000000000000, -1.000000000000000000 ) ) ;
#43 = CARTESIAN_POINT ( 'NONE',  ( 0.000000000000000000, 0.000000000000000000, 108.0000000000000142 ) ) ;
#44 = SECURITY_CLASSIFICATION ( '', '', #83 ) ;
#45 = COORDINATED_UNIVERSAL_TIME_OFFSET ( 1, 0, .AHEAD. ) ;
#46 = AXIS2_PLACEMENT_3D ( 'NONE', #43, #232, #64 ) ;
#47 = PERSON_AND_ORGANIZATION ( #5, #129 ) ;
#48 = AXIS2_PLACEMENT_3D ( 'NONE', #101, #214, #97 ) ;
#49 = PRODUCT ( '894d', '894d', '', ( #138 ) ) ;
#50 = EDGE_CURVE ( 'NONE', #244, #156, #9, .T. ) ;
#51 = ORIENTED_EDGE ( 'NONE', *, *, #38, .T. ) ;
#52 = EDGE_LOOP ( 'NONE', ( #72, #15 ) ) ;
#53 = EDGE_LOOP ( 'NONE', ( #31, #75 ) ) ;
#54 = CARTESIAN_POINT ( 'NONE',  ( 10.00000000000000178, 1.224646799147353454E-15, 8.000000000000000000 ) ) ;
#55 = ADVANCED_FACE ( 'NONE', ( #230 ), #14, .T. ) ;
#56 = CARTESIAN_POINT ( 'NONE',  ( 0.000000000000000000, 0.000000000000000000, 8.000000000000000000 ) ) ;
#57 = DIRECTION ( 'NONE',  ( 1.000000000000000000, 0.000000000000000000, 0.000000000000000000 ) ) ;
#58 = ORIENTED_EDGE ( 'NONE', *, *, #17, .F. ) ;
#59 = LINE ( 'NONE', #36, #161 ) ;
#60 = AXIS2_PLACEMENT_3D ( 'NONE', #234, #254, #164 ) ;
#61 = PERSON_AND_ORGANIZATION_ROLE ( 'creator' ) ;
#62 = CARTESIAN_POINT ( 'NONE',  ( 0.000000000000000000, 0.000000000000000000, 108.0000000000000142 ) ) ;
#63 = CARTESIAN_POINT ( 'NONE',  ( -13.00000000000000178, 0.000000000000000000, 8.000000000000000000 ) ) ;
#64 = DIRECTION ( 'NONE',  ( -1.000000000000000000, 0.000000000000000000, 0.000000000000000000 ) ) ;
#65 = CC_DESIGN_PERSON_AND_ORGANIZATION_ASSIGNMENT ( #24, #3, ( #107 ) ) ;
#66 = CALENDAR_DATE ( 2022, 7, 7 ) ;
#67 = AXIS2_PLACEMENT_3D ( 'NONE', #62, #21, #159 ) ;
#68 = CIRCLE ( 'NONE', #48, 10.00000000000000178 ) ;
#69 = EDGE_CURVE ( 'NONE', #156, #244, #40, .T. ) ;
#70 = APPROVAL_ROLE ( '' ) ;
#71 = ADVANCED_FACE ( 'NONE', ( #180 ), #103, .T. ) ;
#72 = ORIENTED_EDGE ( 'NONE', *, *, #38, .F. ) ;
#73 = EDGE_CURVE ( 'NONE', #149, #127, #144, .T. ) ;
#74 = AXIS2_PLACEMENT_3D ( 'NONE', #155, #84, #16 ) ;
#75 = ORIENTED_EDGE ( 'NONE', *, *, #204, .T. ) ;
#76 = ORIENTED_EDGE ( 'NONE', *, *, #169, .T. ) ;
#77 = DIRECTION ( 'NONE',  ( 1.000000000000000000, 0.000000000000000000, 0.000000000000000000 ) ) ;
#78 = CIRCLE ( 'NONE', #248, 13.00000000000000178 ) ;
#79 = ORIENTED_EDGE ( 'NONE', *, *, #50, .T. ) ;
#80 = CARTESIAN_POINT ( 'NONE',  ( 0.000000000000000000, 0.000000000000000000, 108.0000000000000142 ) ) ;
#81 = DIRECTION ( 'NONE',  ( 0.000000000000000000, 0.000000000000000000, 1.000000000000000000 ) ) ;
#82 = CARTESIAN_POINT ( 'NONE',  ( -10.00000000000000178, 0.000000000000000000, 108.0000000000000142 ) ) ;
#83 = SECURITY_CLASSIFICATION_LEVEL ( 'unclassified' ) ;
#84 = DIRECTION ( 'NONE',  ( 0.000000000000000000, 0.000000000000000000, 1.000000000000000000 ) ) ;
#85 = CIRCLE ( 'NONE', #1, 10.00000000000000178 ) ;
#86 = APPROVAL_DATE_TIME ( #203, #210 ) ;
#87 = CARTESIAN_POINT ( 'NONE',  ( 0.000000000000000000, 0.000000000000000000, 108.0000000000000142 ) ) ;
#88 = PERSON_AND_ORGANIZATION_ROLE ( 'design_owner' ) ;
#89 = APPLICATION_PROTOCOL_DEFINITION ( 'international standard', 'config_control_design', 1994, #145 ) ;
#90 = CC_DESIGN_PERSON_AND_ORGANIZATION_ASSIGNMENT ( #167, #190, ( #44 ) ) ;
#91 = APPROVAL ( #201, 'NEURÈENÝ' ) ;
#92 = APPROVAL_PERSON_ORGANIZATION ( #47, #91, #122 ) ;
#93 = ADVANCED_FACE ( 'NONE', ( #212 ), #246, .T. ) ;
#94 = EDGE_LOOP ( 'NONE', ( #126, #96 ) ) ;
#95 = DIRECTION ( 'NONE',  ( -0.000000000000000000, -0.000000000000000000, -1.000000000000000000 ) ) ;
#96 = ORIENTED_EDGE ( 'NONE', *, *, #131, .T. ) ;
#97 = DIRECTION ( 'NONE',  ( 1.000000000000000000, 0.000000000000000000, 0.000000000000000000 ) ) ;
#98 = CIRCLE ( 'NONE', #60, 13.00000000000000178 ) ;
#99 = CYLINDRICAL_SURFACE ( 'NONE', #160, 13.00000000000000178 ) ;
#100 = FACE_OUTER_BOUND ( 'NONE', #172, .T. ) ;
#101 = CARTESIAN_POINT ( 'NONE',  ( 0.000000000000000000, 0.000000000000000000, 108.0000000000000142 ) ) ;
#102 = CALENDAR_DATE ( 2022, 7, 7 ) ;
#103 = CYLINDRICAL_SURFACE ( 'NONE', #27, 10.00000000000000178 ) ;
#104 = AXIS2_PLACEMENT_3D ( 'NONE', #143, #185, #119 ) ;
#105 = PERSON_AND_ORGANIZATION ( #5, #129 ) ;
#106 = CC_DESIGN_DATE_AND_TIME_ASSIGNMENT ( #224, #146, ( #44 ) ) ;
#107 = PRODUCT_DEFINITION_FORMATION_WITH_SPECIFIED_SOURCE ( 'LIBOVOLNÝ', '', #49, .NOT_KNOWN. ) ;
#108 = LINE ( 'NONE', #37, #220 ) ;
#109 = LOCAL_TIME ( 19, 4, 21.00000000000000000, #206 ) ;
#110 = CC_DESIGN_DATE_AND_TIME_ASSIGNMENT ( #199, #18, ( #228 ) ) ;
#111 = EDGE_LOOP ( 'NONE', ( #249, #229, #208, #58 ) ) ;
#112 = DIRECTION ( 'NONE',  ( -0.000000000000000000, -0.000000000000000000, -1.000000000000000000 ) ) ;
#113 = CARTESIAN_POINT ( 'NONE',  ( -13.00000000000000178, 0.000000000000000000, 0.000000000000000000 ) ) ;
#114 = CARTESIAN_POINT ( 'NONE',  ( 0.000000000000000000, 0.000000000000000000, 0.000000000000000000 ) ) ;
#115 = DIRECTION ( 'NONE',  ( -0.000000000000000000, -0.000000000000000000, -1.000000000000000000 ) ) ;
#116 = CALENDAR_DATE ( 2022, 7, 7 ) ;
#117 = PLANE ( 'NONE',  #74 ) ;
#118 = DIRECTION ( 'NONE',  ( 0.000000000000000000, 0.000000000000000000, 1.000000000000000000 ) ) ;
#119 = DIRECTION ( 'NONE',  ( 1.000000000000000000, 0.000000000000000000, 0.000000000000000000 ) ) ;
#120 = AXIS2_PLACEMENT_3D ( 'NONE', #202, #115, #176 ) ;
#121 = CALENDAR_DATE ( 2022, 7, 7 ) ;
#122 = APPROVAL_ROLE ( '' ) ;
#123 = VECTOR ( 'NONE', #95, 1000.000000000000000 ) ;
#124 = LOCAL_TIME ( 19, 4, 21.00000000000000000, #45 ) ;
#125 = CIRCLE ( 'NONE', #141, 13.00000000000000178 ) ;
#126 = ORIENTED_EDGE ( 'NONE', *, *, #139, .T. ) ;
#127 = VERTEX_POINT ( 'NONE', #113 ) ;
#128 = ORIENTED_EDGE ( 'NONE', *, *, #4, .T. ) ;
#129 = ORGANIZATION ( 'NEURÈENÝ', 'NEURÈENÝ', '' ) ;
#130 = ORIENTED_EDGE ( 'NONE', *, *, #50, .F. ) ;
#131 = EDGE_CURVE ( 'NONE', #13, #233, #98, .T. ) ;
#132 = CARTESIAN_POINT ( 'NONE',  ( 10.00000000000000178, 1.224646799147353454E-15, 108.0000000000000142 ) ) ;
#133 = DIRECTION ( 'NONE',  ( -0.000000000000000000, -0.000000000000000000, -1.000000000000000000 ) ) ;
#134 = CARTESIAN_POINT ( 'NONE',  ( 13.00000000000000178, 1.592040838891559293E-15, 0.000000000000000000 ) ) ;
#135 = DIRECTION ( 'NONE',  ( 1.000000000000000000, 0.000000000000000000, -0.000000000000000000 ) ) ;
#136 = CARTESIAN_POINT ( 'NONE',  ( 0.000000000000000000, 0.000000000000000000, 0.000000000000000000 ) ) ;
#137 = DIRECTION ( 'NONE',  ( 0.000000000000000000, 0.000000000000000000, 1.000000000000000000 ) ) ;
#138 = MECHANICAL_CONTEXT ( 'NONE', #240, 'mechanical' ) ;
#139 = EDGE_CURVE ( 'NONE', #233, #13, #78, .T. ) ;
#140 = APPROVAL_STATUS ( 'not_yet_approved' ) ;
#141 = AXIS2_PLACEMENT_3D ( 'NONE', #114, #81, #215 ) ;
#142 = CC_DESIGN_APPROVAL ( #207, ( #44 ) ) ;
#143 = CARTESIAN_POINT ( 'NONE',  ( 0.000000000000000000, 0.000000000000000000, 0.000000000000000000 ) ) ;
#144 = CIRCLE ( 'NONE', #189, 13.00000000000000178 ) ;
#145 = APPLICATION_CONTEXT ( 'configuration controlled 3d designs of mechanical parts and assemblies' ) ;
#146 = DATE_TIME_ROLE ( 'classification_date' ) ;
#147 = EDGE_LOOP ( 'NONE', ( #130, #175 ) ) ;
#148 = PRODUCT_DEFINITION_SHAPE ( 'NONE', 'NONE',  #228 ) ;
#149 = VERTEX_POINT ( 'NONE', #134 ) ;
#150 = VERTEX_POINT ( 'NONE', #82 ) ;
#151 = VERTEX_POINT ( 'NONE', #250 ) ;
#152 = CC_DESIGN_APPROVAL ( #91, ( #228 ) ) ;
#153 = DIRECTION ( 'NONE',  ( 1.000000000000000000, 0.000000000000000000, 0.000000000000000000 ) ) ;
#154 = EDGE_LOOP ( 'NONE', ( #35, #227, #226, #51 ) ) ;
#155 = CARTESIAN_POINT ( 'NONE',  ( 0.000000000000000000, 0.000000000000000000, 8.000000000000000000 ) ) ;
#156 = VERTEX_POINT ( 'NONE', #54 ) ;
#157 = DIRECTION ( 'NONE',  ( -1.000000000000000000, 0.000000000000000000, 0.000000000000000000 ) ) ;
#158 =( NAMED_UNIT ( * ) PLANE_ANGLE_UNIT ( ) SI_UNIT ( $, .RADIAN. ) );
#159 = DIRECTION ( 'NONE',  ( 1.000000000000000000, 0.000000000000000000, -0.000000000000000000 ) ) ;
#160 = AXIS2_PLACEMENT_3D ( 'NONE', #56, #133, #213 ) ;
#161 = VECTOR ( 'NONE', #42, 1000.000000000000000 ) ;
#162 = DATE_AND_TIME ( #102, #193 ) ;
#163 = CC_DESIGN_PERSON_AND_ORGANIZATION_ASSIGNMENT ( #25, #88, ( #49 ) ) ;
#164 = DIRECTION ( 'NONE',  ( 1.000000000000000000, 0.000000000000000000, 0.000000000000000000 ) ) ;
#165 = DESIGN_CONTEXT ( 'detailed design', #145, 'design' ) ;
#166 = COORDINATED_UNIVERSAL_TIME_OFFSET ( 1, 0, .AHEAD. ) ;
#167 = PERSON_AND_ORGANIZATION ( #5, #129 ) ;
#168 = PERSON_AND_ORGANIZATION ( #5, #129 ) ;
#169 = EDGE_CURVE ( 'NONE', #151, #156, #19, .T. ) ;
#170 = ORIENTED_EDGE ( 'NONE', *, *, #69, .T. ) ;
#171 = ADVANCED_BREP_SHAPE_REPRESENTATION ( '894d', ( #34, #104 ), #209 ) ;
#172 = EDGE_LOOP ( 'NONE', ( #11, #211, #128, #79 ) ) ;
#173 = CARTESIAN_POINT ( 'NONE',  ( -13.00000000000000178, 0.000000000000000000, 8.000000000000000000 ) ) ;
#174 = CARTESIAN_POINT ( 'NONE',  ( 0.000000000000000000, 0.000000000000000000, 8.000000000000000000 ) ) ;
#175 = ORIENTED_EDGE ( 'NONE', *, *, #69, .F. ) ;
#176 = DIRECTION ( 'NONE',  ( -1.000000000000000000, 0.000000000000000000, 0.000000000000000000 ) ) ;
#177 = PERSON_AND_ORGANIZATION ( #5, #129 ) ;
#178 = CYLINDRICAL_SURFACE ( 'NONE', #46, 10.00000000000000178 ) ;
#179 = APPROVAL_ROLE ( '' ) ;
#180 = FACE_OUTER_BOUND ( 'NONE', #183, .T. ) ;
#181 = AXIS2_PLACEMENT_3D ( 'NONE', #41, #118, #39 ) ;
#182 = VECTOR ( 'NONE', #200, 1000.000000000000000 ) ;
#183 = EDGE_LOOP ( 'NONE', ( #192, #76, #170, #251 ) ) ;
#184 =( NAMED_UNIT ( * ) SI_UNIT ( $, .STERADIAN. ) SOLID_ANGLE_UNIT ( ) );
#185 = DIRECTION ( 'NONE',  ( 0.000000000000000000, 0.000000000000000000, 1.000000000000000000 ) ) ;
#186 = CC_DESIGN_PERSON_AND_ORGANIZATION_ASSIGNMENT ( #237, #253, ( #107 ) ) ;
#187 = EDGE_CURVE ( 'NONE', #13, #149, #59, .T. ) ;
#188 = COORDINATED_UNIVERSAL_TIME_OFFSET ( 1, 0, .AHEAD. ) ;
#189 = AXIS2_PLACEMENT_3D ( 'NONE', #136, #198, #238 ) ;
#190 = PERSON_AND_ORGANIZATION_ROLE ( 'classification_officer' ) ;
#191 = SHAPE_DEFINITION_REPRESENTATION ( #148, #171 ) ;
#192 = ORIENTED_EDGE ( 'NONE', *, *, #204, .F. ) ;
#193 = LOCAL_TIME ( 19, 4, 21.00000000000000000, #166 ) ;
#194 = CARTESIAN_POINT ( 'NONE',  ( 0.000000000000000000, 0.000000000000000000, 0.000000000000000000 ) ) ;
#195 = FACE_OUTER_BOUND ( 'NONE', #52, .T. ) ;
#196 = DIRECTION ( 'NONE',  ( 0.000000000000000000, 0.000000000000000000, 1.000000000000000000 ) ) ;
#197 = FACE_OUTER_BOUND ( 'NONE', #111, .T. ) ;
#198 = DIRECTION ( 'NONE',  ( 0.000000000000000000, 0.000000000000000000, 1.000000000000000000 ) ) ;
#199 = DATE_AND_TIME ( #116, #235 ) ;
#200 = DIRECTION ( 'NONE',  ( -0.000000000000000000, -0.000000000000000000, -1.000000000000000000 ) ) ;
#201 = APPROVAL_STATUS ( 'not_yet_approved' ) ;
#202 = CARTESIAN_POINT ( 'NONE',  ( 0.000000000000000000, 0.000000000000000000, 8.000000000000000000 ) ) ;
#203 = DATE_AND_TIME ( #121, #124 ) ;
#204 = EDGE_CURVE ( 'NONE', #151, #150, #85, .T. ) ;
#205 = EDGE_CURVE ( 'NONE', #150, #151, #68, .T. ) ;
#206 = COORDINATED_UNIVERSAL_TIME_OFFSET ( 1, 0, .AHEAD. ) ;
#207 = APPROVAL ( #28, 'NEURÈENÝ' ) ;
#208 = ORIENTED_EDGE ( 'NONE', *, *, #73, .T. ) ;
#209 =( GEOMETRIC_REPRESENTATION_CONTEXT ( 3 ) GLOBAL_UNCERTAINTY_ASSIGNED_CONTEXT ( ( #8 ) ) GLOBAL_UNIT_ASSIGNED_CONTEXT ( ( #242, #158, #184 ) ) REPRESENTATION_CONTEXT ( 'NONE', 'WORKASPACE' ) );
#210 = APPROVAL ( #140, 'NEURÈENÝ' ) ;
#211 = ORIENTED_EDGE ( 'NONE', *, *, #205, .F. ) ;
#212 = FACE_OUTER_BOUND ( 'NONE', #154, .T. ) ;
#213 = DIRECTION ( 'NONE',  ( -1.000000000000000000, 0.000000000000000000, 0.000000000000000000 ) ) ;
#214 = DIRECTION ( 'NONE',  ( 0.000000000000000000, 0.000000000000000000, 1.000000000000000000 ) ) ;
#215 = DIRECTION ( 'NONE',  ( 1.000000000000000000, 0.000000000000000000, 0.000000000000000000 ) ) ;
#216 = PRODUCT_RELATED_PRODUCT_CATEGORY ( 'detail', '', ( #49 ) ) ;
#217 = DIRECTION ( 'NONE',  ( 0.000000000000000000, 0.000000000000000000, 1.000000000000000000 ) ) ;
#218 = FACE_OUTER_BOUND ( 'NONE', #94, .T. ) ;
#219 = CARTESIAN_POINT ( 'NONE',  ( -10.00000000000000178, 0.000000000000000000, 8.000000000000000000 ) ) ;
#220 = VECTOR ( 'NONE', #112, 1000.000000000000000 ) ;
#221 = APPROVAL_PERSON_ORGANIZATION ( #168, #207, #70 ) ;
#222 = ADVANCED_FACE ( 'NONE', ( #236, #218 ), #117, .T. ) ;
#223 = CC_DESIGN_APPROVAL ( #210, ( #107 ) ) ;
#224 = DATE_AND_TIME ( #243, #109 ) ;
#225 = ADVANCED_FACE ( 'NONE', ( #100 ), #178, .T. ) ;
#226 = ORIENTED_EDGE ( 'NONE', *, *, #17, .T. ) ;
#227 = ORIENTED_EDGE ( 'NONE', *, *, #139, .F. ) ;
#228 = PRODUCT_DEFINITION ( 'NEZNÁMÝ', '', #107, #165 ) ;
#229 = ORIENTED_EDGE ( 'NONE', *, *, #187, .T. ) ;
#230 = FACE_OUTER_BOUND ( 'NONE', #53, .T. ) ;
#231 = CARTESIAN_POINT ( 'NONE',  ( 13.00000000000000178, 1.592040838891559293E-15, 8.000000000000000000 ) ) ;
#232 = DIRECTION ( 'NONE',  ( -0.000000000000000000, -0.000000000000000000, -1.000000000000000000 ) ) ;
#233 = VERTEX_POINT ( 'NONE', #63 ) ;
#234 = CARTESIAN_POINT ( 'NONE',  ( 0.000000000000000000, 0.000000000000000000, 8.000000000000000000 ) ) ;
#235 = LOCAL_TIME ( 19, 4, 21.00000000000000000, #239 ) ;
#236 = FACE_BOUND ( 'NONE', #147, .T. ) ;
#237 = PERSON_AND_ORGANIZATION ( #5, #129 ) ;
#238 = DIRECTION ( 'NONE',  ( 1.000000000000000000, 0.000000000000000000, 0.000000000000000000 ) ) ;
#239 = COORDINATED_UNIVERSAL_TIME_OFFSET ( 1, 0, .AHEAD. ) ;
#240 = APPLICATION_CONTEXT ( 'configuration controlled 3d designs of mechanical parts and assemblies' ) ;
#241 = CC_DESIGN_PERSON_AND_ORGANIZATION_ASSIGNMENT ( #105, #61, ( #228 ) ) ;
#242 =( LENGTH_UNIT ( ) NAMED_UNIT ( * ) SI_UNIT ( .MILLI., .METRE. ) );
#243 = CALENDAR_DATE ( 2022, 7, 7 ) ;
#244 = VERTEX_POINT ( 'NONE', #219 ) ;
#245 = DIRECTION ( 'NONE',  ( 0.000000000000000000, 0.000000000000000000, 1.000000000000000000 ) ) ;
#246 = CYLINDRICAL_SURFACE ( 'NONE', #120, 13.00000000000000178 ) ;
#247 = AXIS2_PLACEMENT_3D ( 'NONE', #194, #245, #135 ) ;
#248 = AXIS2_PLACEMENT_3D ( 'NONE', #174, #217, #77 ) ;
#249 = ORIENTED_EDGE ( 'NONE', *, *, #131, .F. ) ;
#250 = CARTESIAN_POINT ( 'NONE',  ( 10.00000000000000178, 1.224646799147353454E-15, 108.0000000000000142 ) ) ;
#251 = ORIENTED_EDGE ( 'NONE', *, *, #4, .F. ) ;
#252 = DIRECTION ( 'NONE',  ( -0.000000000000000000, -0.000000000000000000, -1.000000000000000000 ) ) ;
#253 = PERSON_AND_ORGANIZATION_ROLE ( 'creator' ) ;
#254 = DIRECTION ( 'NONE',  ( 0.000000000000000000, 0.000000000000000000, 1.000000000000000000 ) ) ;
#255 = APPROVAL_DATE_TIME ( #162, #91 ) ;
ENDSEC;
END-ISO-10303-21;
