ISO-10303-21;
HEADER;
FILE_DESCRIPTION (( 'STEP AP203' ),
    '1' );
FILE_NAME ('aec5.STEP',
    '2022-07-07T17:24:37',
    ( '' ),
    ( '' ),
    'SwSTEP 2.0',
    'SolidWorks 2019',
    '' );
FILE_SCHEMA (( 'CONFIG_CONTROL_DESIGN' ));
ENDSEC;

DATA;
#1 = DIRECTION ( 'NONE',  ( 1.000000000000000000, 0.000000000000000000, -0.000000000000000000 ) ) ;
#2 = AXIS2_PLACEMENT_3D ( 'NONE', #218, #234, #88 ) ;
#3 = DIRECTION ( 'NONE',  ( -0.000000000000000000, -0.000000000000000000, -1.000000000000000000 ) ) ;
#4 = APPROVAL_PERSON_ORGANIZATION ( #81, #19, #68 ) ;
#5 = FACE_OUTER_BOUND ( 'NONE', #112, .T. ) ;
#6 = DIRECTION ( 'NONE',  ( 1.000000000000000000, 0.000000000000000000, 0.000000000000000000 ) ) ;
#7 = DIRECTION ( 'NONE',  ( 0.000000000000000000, 0.000000000000000000, 1.000000000000000000 ) ) ;
#8 = ADVANCED_FACE ( 'NONE', ( #221, #63 ), #38, .T. ) ;
#9 = COORDINATED_UNIVERSAL_TIME_OFFSET ( 1, 0, .AHEAD. ) ;
#10 = AXIS2_PLACEMENT_3D ( 'NONE', #60, #25, #114 ) ;
#11 = CALENDAR_DATE ( 2022, 7, 7 ) ;
#12 = LOCAL_TIME ( 19, 24, 37.00000000000000000, #161 ) ;
#13 = PERSON_AND_ORGANIZATION_ROLE ( 'creator' ) ;
#14 = LOCAL_TIME ( 19, 24, 37.00000000000000000, #208 ) ;
#15 = DIRECTION ( 'NONE',  ( 0.000000000000000000, 0.000000000000000000, 1.000000000000000000 ) ) ;
#16 = AXIS2_PLACEMENT_3D ( 'NONE', #205, #26, #240 ) ;
#17 =( GEOMETRIC_REPRESENTATION_CONTEXT ( 3 ) GLOBAL_UNCERTAINTY_ASSIGNED_CONTEXT ( ( #108 ) ) GLOBAL_UNIT_ASSIGNED_CONTEXT ( ( #178, #64, #156 ) ) REPRESENTATION_CONTEXT ( 'NONE', 'WORKASPACE' ) );
#18 = FACE_OUTER_BOUND ( 'NONE', #145, .T. ) ;
#19 = APPROVAL ( #160, 'NEURÈENÝ' ) ;
#20 = DIRECTION ( 'NONE',  ( -0.000000000000000000, -0.000000000000000000, -1.000000000000000000 ) ) ;
#21 = VERTEX_POINT ( 'NONE', #42 ) ;
#22 = ORIENTED_EDGE ( 'NONE', *, *, #122, .T. ) ;
#23 = EDGE_LOOP ( 'NONE', ( #69, #74, #22, #110 ) ) ;
#24 = CYLINDRICAL_SURFACE ( 'NONE', #27, 8.000000000000000000 ) ;
#25 = DIRECTION ( 'NONE',  ( -0.000000000000000000, -0.000000000000000000, -1.000000000000000000 ) ) ;
#26 = DIRECTION ( 'NONE',  ( 0.000000000000000000, 0.000000000000000000, 1.000000000000000000 ) ) ;
#27 = AXIS2_PLACEMENT_3D ( 'NONE', #138, #43, #115 ) ;
#28 = CARTESIAN_POINT ( 'NONE',  ( 8.000000000000000000, 9.797174393178825657E-16, 0.000000000000000000 ) ) ;
#29 = CARTESIAN_POINT ( 'NONE',  ( 0.000000000000000000, 0.000000000000000000, 165.0000000000000000 ) ) ;
#30 = APPLICATION_PROTOCOL_DEFINITION ( 'international standard', 'config_control_design', 1994, #62 ) ;
#31 = EDGE_CURVE ( 'NONE', #201, #83, #245, .T. ) ;
#32 = APPROVAL_STATUS ( 'not_yet_approved' ) ;
#33 = DATE_AND_TIME ( #184, #155 ) ;
#34 = CIRCLE ( 'NONE', #16, 5.250000000000000000 ) ;
#35 = LOCAL_TIME ( 19, 24, 37.00000000000000000, #120 ) ;
#36 = EDGE_CURVE ( 'NONE', #232, #98, #121, .T. ) ;
#37 = AXIS2_PLACEMENT_3D ( 'NONE', #167, #200, #45 ) ;
#38 = PLANE ( 'NONE',  #103 ) ;
#39 = CC_DESIGN_DATE_AND_TIME_ASSIGNMENT ( #33, #185, ( #163 ) ) ;
#40 = FACE_OUTER_BOUND ( 'NONE', #181, .T. ) ;
#41 = EDGE_LOOP ( 'NONE', ( #183, #76, #198, #80 ) ) ;
#42 = CARTESIAN_POINT ( 'NONE',  ( -8.000000000000000000, 0.000000000000000000, 5.000000000000000000 ) ) ;
#43 = DIRECTION ( 'NONE',  ( -0.000000000000000000, -0.000000000000000000, -1.000000000000000000 ) ) ;
#44 = PRODUCT_DEFINITION ( 'NEZNÁMÝ', '', #251, #75 ) ;
#45 = DIRECTION ( 'NONE',  ( 1.000000000000000000, 0.000000000000000000, 0.000000000000000000 ) ) ;
#46 = CARTESIAN_POINT ( 'NONE',  ( 0.000000000000000000, 0.000000000000000000, 165.0000000000000000 ) ) ;
#47 = CYLINDRICAL_SURFACE ( 'NONE', #241, 8.000000000000000000 ) ;
#48 = EDGE_LOOP ( 'NONE', ( #231, #104 ) ) ;
#49 = EDGE_CURVE ( 'NONE', #21, #91, #158, .T. ) ;
#50 = PERSON_AND_ORGANIZATION ( #129, #202 ) ;
#51 = DATE_AND_TIME ( #118, #35 ) ;
#52 = AXIS2_PLACEMENT_3D ( 'NONE', #196, #169, #1 ) ;
#53 = ADVANCED_FACE ( 'NONE', ( #5 ), #151, .T. ) ;
#54 = PERSON_AND_ORGANIZATION_ROLE ( 'design_owner' ) ;
#55 = AXIS2_PLACEMENT_3D ( 'NONE', #237, #220, #6 ) ;
#56 = ADVANCED_FACE ( 'NONE', ( #40 ), #150, .T. ) ;
#57 = DIRECTION ( 'NONE',  ( -0.000000000000000000, -0.000000000000000000, -1.000000000000000000 ) ) ;
#58 = PRODUCT_RELATED_PRODUCT_CATEGORY ( 'detail', '', ( #186 ) ) ;
#59 = VERTEX_POINT ( 'NONE', #197 ) ;
#60 = CARTESIAN_POINT ( 'NONE',  ( 0.000000000000000000, 0.000000000000000000, 165.0000000000000000 ) ) ;
#61 = EDGE_LOOP ( 'NONE', ( #174, #86 ) ) ;
#62 = APPLICATION_CONTEXT ( 'configuration controlled 3d designs of mechanical parts and assemblies' ) ;
#63 = FACE_OUTER_BOUND ( 'NONE', #61, .T. ) ;
#64 =( NAMED_UNIT ( * ) PLANE_ANGLE_UNIT ( ) SI_UNIT ( $, .RADIAN. ) );
#65 = ORIENTED_EDGE ( 'NONE', *, *, #66, .T. ) ;
#66 = EDGE_CURVE ( 'NONE', #199, #201, #106, .T. ) ;
#67 = APPROVAL_STATUS ( 'not_yet_approved' ) ;
#68 = APPROVAL_ROLE ( '' ) ;
#69 = ORIENTED_EDGE ( 'NONE', *, *, #143, .F. ) ;
#70 = CC_DESIGN_PERSON_AND_ORGANIZATION_ASSIGNMENT ( #82, #119, ( #251 ) ) ;
#71 = APPROVAL_DATE_TIME ( #142, #19 ) ;
#72 = VECTOR ( 'NONE', #20, 1000.000000000000000 ) ;
#73 = FACE_OUTER_BOUND ( 'NONE', #171, .T. ) ;
#74 = ORIENTED_EDGE ( 'NONE', *, *, #49, .F. ) ;
#75 = DESIGN_CONTEXT ( 'detailed design', #62, 'design' ) ;
#76 = ORIENTED_EDGE ( 'NONE', *, *, #143, .T. ) ;
#77 = CARTESIAN_POINT ( 'NONE',  ( 5.250000000000000000, 6.429395695523604153E-16, 5.000000000000000000 ) ) ;
#78 = DATE_AND_TIME ( #11, #146 ) ;
#79 = COORDINATED_UNIVERSAL_TIME_OFFSET ( 1, 0, .AHEAD. ) ;
#80 = ORIENTED_EDGE ( 'NONE', *, *, #122, .F. ) ;
#81 = PERSON_AND_ORGANIZATION ( #129, #202 ) ;
#82 = PERSON_AND_ORGANIZATION ( #129, #202 ) ;
#83 = VERTEX_POINT ( 'NONE', #85 ) ;
#84 = CIRCLE ( 'NONE', #223, 5.250000000000000000 ) ;
#85 = CARTESIAN_POINT ( 'NONE',  ( -5.250000000000000000, 0.000000000000000000, 5.000000000000000000 ) ) ;
#86 = ORIENTED_EDGE ( 'NONE', *, *, #207, .T. ) ;
#87 = FACE_OUTER_BOUND ( 'NONE', #23, .T. ) ;
#88 = DIRECTION ( 'NONE',  ( 1.000000000000000000, 0.000000000000000000, 0.000000000000000000 ) ) ;
#89 = ORIENTED_EDGE ( 'NONE', *, *, #180, .T. ) ;
#90 = DIRECTION ( 'NONE',  ( 1.000000000000000000, 0.000000000000000000, 0.000000000000000000 ) ) ;
#91 = VERTEX_POINT ( 'NONE', #255 ) ;
#92 = DIRECTION ( 'NONE',  ( -0.000000000000000000, -0.000000000000000000, -1.000000000000000000 ) ) ;
#93 = VECTOR ( 'NONE', #92, 1000.000000000000000 ) ;
#94 = DIRECTION ( 'NONE',  ( -0.000000000000000000, -0.000000000000000000, -1.000000000000000000 ) ) ;
#95 = CC_DESIGN_PERSON_AND_ORGANIZATION_ASSIGNMENT ( #99, #247, ( #44 ) ) ;
#96 = ADVANCED_BREP_SHAPE_REPRESENTATION ( 'aec5', ( #217, #55 ), #17 ) ;
#97 = CARTESIAN_POINT ( 'NONE',  ( 5.250000000000000000, 6.429395695523604153E-16, 165.0000000000000000 ) ) ;
#98 = VERTEX_POINT ( 'NONE', #170 ) ;
#99 = PERSON_AND_ORGANIZATION ( #129, #202 ) ;
#100 = ADVANCED_FACE ( 'NONE', ( #73 ), #147, .T. ) ;
#101 = PERSON_AND_ORGANIZATION_ROLE ( 'classification_officer' ) ;
#102 = APPROVAL_ROLE ( '' ) ;
#103 = AXIS2_PLACEMENT_3D ( 'NONE', #124, #130, #133 ) ;
#104 = ORIENTED_EDGE ( 'NONE', *, *, #31, .F. ) ;
#105 = CC_DESIGN_APPROVAL ( #164, ( #44 ) ) ;
#106 = LINE ( 'NONE', #191, #177 ) ;
#107 = PLANE ( 'NONE',  #52 ) ;
#108 = UNCERTAINTY_MEASURE_WITH_UNIT (LENGTH_MEASURE( 1.000000000000000082E-05 ), #178, 'distance_accuracy_value', 'NONE');
#109 = CARTESIAN_POINT ( 'NONE',  ( 0.000000000000000000, 0.000000000000000000, 165.0000000000000000 ) ) ;
#110 = ORIENTED_EDGE ( 'NONE', *, *, #149, .T. ) ;
#111 = CC_DESIGN_PERSON_AND_ORGANIZATION_ASSIGNMENT ( #159, #13, ( #251 ) ) ;
#112 = EDGE_LOOP ( 'NONE', ( #134, #65, #127, #162 ) ) ;
#113 = DIRECTION ( 'NONE',  ( -0.000000000000000000, -0.000000000000000000, -1.000000000000000000 ) ) ;
#114 = DIRECTION ( 'NONE',  ( -1.000000000000000000, 0.000000000000000000, 0.000000000000000000 ) ) ;
#115 = DIRECTION ( 'NONE',  ( -1.000000000000000000, 0.000000000000000000, 0.000000000000000000 ) ) ;
#116 = ADVANCED_FACE ( 'NONE', ( #18 ), #107, .F. ) ;
#117 = LINE ( 'NONE', #224, #154 ) ;
#118 = CALENDAR_DATE ( 2022, 7, 7 ) ;
#119 = PERSON_AND_ORGANIZATION_ROLE ( 'design_supplier' ) ;
#120 = COORDINATED_UNIVERSAL_TIME_OFFSET ( 1, 0, .AHEAD. ) ;
#121 = CIRCLE ( 'NONE', #2, 8.000000000000000000 ) ;
#122 = EDGE_CURVE ( 'NONE', #21, #98, #126, .T. ) ;
#123 = CLOSED_SHELL ( 'NONE', ( #53, #168, #128, #8, #116, #100, #56 ) ) ;
#124 = CARTESIAN_POINT ( 'NONE',  ( 0.000000000000000000, 0.000000000000000000, 5.000000000000000000 ) ) ;
#125 = CC_DESIGN_APPROVAL ( #243, ( #251 ) ) ;
#126 = LINE ( 'NONE', #215, #72 ) ;
#127 = ORIENTED_EDGE ( 'NONE', *, *, #31, .T. ) ;
#128 = ADVANCED_FACE ( 'NONE', ( #87 ), #24, .T. ) ;
#129 = PERSON ( 'NEURÈENÝ', 'NEURÈENÝ', 'NEURÈENÝ', ('NEURÈENÝ'), ('NEURÈENÝ'), ('NEURÈENÝ') ) ;
#130 = DIRECTION ( 'NONE',  ( 0.000000000000000000, 0.000000000000000000, 1.000000000000000000 ) ) ;
#131 = ORIENTED_EDGE ( 'NONE', *, *, #193, .F. ) ;
#132 = DIRECTION ( 'NONE',  ( -1.000000000000000000, 0.000000000000000000, 0.000000000000000000 ) ) ;
#133 = DIRECTION ( 'NONE',  ( 1.000000000000000000, 0.000000000000000000, -0.000000000000000000 ) ) ;
#134 = ORIENTED_EDGE ( 'NONE', *, *, #180, .F. ) ;
#135 = DIRECTION ( 'NONE',  ( 1.000000000000000000, 0.000000000000000000, 0.000000000000000000 ) ) ;
#136 = AXIS2_PLACEMENT_3D ( 'NONE', #153, #175, #90 ) ;
#137 = APPROVAL_PERSON_ORGANIZATION ( #250, #243, #227 ) ;
#138 = CARTESIAN_POINT ( 'NONE',  ( 0.000000000000000000, 0.000000000000000000, 5.000000000000000000 ) ) ;
#139 = APPLICATION_PROTOCOL_DEFINITION ( 'international standard', 'config_control_design', 1994, #252 ) ;
#140 = CALENDAR_DATE ( 2022, 7, 7 ) ;
#141 = CC_DESIGN_DATE_AND_TIME_ASSIGNMENT ( #51, #182, ( #44 ) ) ;
#142 = DATE_AND_TIME ( #249, #14 ) ;
#143 = EDGE_CURVE ( 'NONE', #91, #232, #204, .T. ) ;
#144 = ORIENTED_EDGE ( 'NONE', *, *, #66, .F. ) ;
#145 = EDGE_LOOP ( 'NONE', ( #235, #216 ) ) ;
#146 = LOCAL_TIME ( 19, 24, 37.00000000000000000, #79 ) ;
#147 = CYLINDRICAL_SURFACE ( 'NONE', #189, 5.250000000000000000 ) ;
#148 = CARTESIAN_POINT ( 'NONE',  ( 0.000000000000000000, 0.000000000000000000, 5.000000000000000000 ) ) ;
#149 = EDGE_CURVE ( 'NONE', #98, #232, #192, .T. ) ;
#150 = PLANE ( 'NONE',  #219 ) ;
#151 = CYLINDRICAL_SURFACE ( 'NONE', #10, 5.250000000000000000 ) ;
#152 = DIRECTION ( 'NONE',  ( 1.000000000000000000, 0.000000000000000000, 0.000000000000000000 ) ) ;
#153 = CARTESIAN_POINT ( 'NONE',  ( 0.000000000000000000, 0.000000000000000000, 5.000000000000000000 ) ) ;
#154 = VECTOR ( 'NONE', #94, 1000.000000000000000 ) ;
#155 = LOCAL_TIME ( 19, 24, 37.00000000000000000, #9 ) ;
#156 =( NAMED_UNIT ( * ) SI_UNIT ( $, .STERADIAN. ) SOLID_ANGLE_UNIT ( ) );
#157 = MECHANICAL_CONTEXT ( 'NONE', #252, 'mechanical' ) ;
#158 = CIRCLE ( 'NONE', #253, 8.000000000000000000 ) ;
#159 = PERSON_AND_ORGANIZATION ( #129, #202 ) ;
#160 = APPROVAL_STATUS ( 'not_yet_approved' ) ;
#161 = COORDINATED_UNIVERSAL_TIME_OFFSET ( 1, 0, .AHEAD. ) ;
#162 = ORIENTED_EDGE ( 'NONE', *, *, #236, .F. ) ;
#163 = SECURITY_CLASSIFICATION ( '', '', #228 ) ;
#164 = APPROVAL ( #67, 'NEURÈENÝ' ) ;
#165 = CIRCLE ( 'NONE', #211, 5.250000000000000000 ) ;
#166 = CC_DESIGN_SECURITY_CLASSIFICATION ( #163, ( #251 ) ) ;
#167 = CARTESIAN_POINT ( 'NONE',  ( 0.000000000000000000, 0.000000000000000000, 5.000000000000000000 ) ) ;
#168 = ADVANCED_FACE ( 'NONE', ( #222 ), #47, .T. ) ;
#169 = DIRECTION ( 'NONE',  ( 0.000000000000000000, 0.000000000000000000, 1.000000000000000000 ) ) ;
#170 = CARTESIAN_POINT ( 'NONE',  ( -8.000000000000000000, 0.000000000000000000, 0.000000000000000000 ) ) ;
#171 = EDGE_LOOP ( 'NONE', ( #144, #131, #187, #248 ) ) ;
#172 = DIRECTION ( 'NONE',  ( 0.000000000000000000, 0.000000000000000000, 1.000000000000000000 ) ) ;
#173 = CC_DESIGN_PERSON_AND_ORGANIZATION_ASSIGNMENT ( #50, #101, ( #163 ) ) ;
#174 = ORIENTED_EDGE ( 'NONE', *, *, #49, .T. ) ;
#175 = DIRECTION ( 'NONE',  ( 0.000000000000000000, 0.000000000000000000, 1.000000000000000000 ) ) ;
#176 = CARTESIAN_POINT ( 'NONE',  ( 0.000000000000000000, 0.000000000000000000, 5.000000000000000000 ) ) ;
#177 = VECTOR ( 'NONE', #3, 1000.000000000000000 ) ;
#178 =( LENGTH_UNIT ( ) NAMED_UNIT ( * ) SI_UNIT ( .MILLI., .METRE. ) );
#179 = CARTESIAN_POINT ( 'NONE',  ( 8.000000000000000000, 9.797174393178825657E-16, 5.000000000000000000 ) ) ;
#180 = EDGE_CURVE ( 'NONE', #199, #59, #165, .T. ) ;
#181 = EDGE_LOOP ( 'NONE', ( #242, #89 ) ) ;
#182 = DATE_TIME_ROLE ( 'creation_date' ) ;
#183 = ORIENTED_EDGE ( 'NONE', *, *, #207, .F. ) ;
#184 = CALENDAR_DATE ( 2022, 7, 7 ) ;
#185 = DATE_TIME_ROLE ( 'classification_date' ) ;
#186 = PRODUCT ( 'aec5', 'aec5', '', ( #157 ) ) ;
#187 = ORIENTED_EDGE ( 'NONE', *, *, #236, .T. ) ;
#188 = CC_DESIGN_PERSON_AND_ORGANIZATION_ASSIGNMENT ( #229, #54, ( #186 ) ) ;
#189 = AXIS2_PLACEMENT_3D ( 'NONE', #233, #57, #214 ) ;
#190 = PRODUCT_DEFINITION_SHAPE ( 'NONE', 'NONE',  #44 ) ;
#191 = CARTESIAN_POINT ( 'NONE',  ( 5.250000000000000000, 6.429395695523604153E-16, 165.0000000000000000 ) ) ;
#192 = CIRCLE ( 'NONE', #194, 8.000000000000000000 ) ;
#193 = EDGE_CURVE ( 'NONE', #59, #199, #84, .T. ) ;
#194 = AXIS2_PLACEMENT_3D ( 'NONE', #239, #226, #135 ) ;
#195 = CC_DESIGN_APPROVAL ( #19, ( #163 ) ) ;
#196 = CARTESIAN_POINT ( 'NONE',  ( 0.000000000000000000, 0.000000000000000000, 0.000000000000000000 ) ) ;
#197 = CARTESIAN_POINT ( 'NONE',  ( -5.250000000000000000, 0.000000000000000000, 165.0000000000000000 ) ) ;
#198 = ORIENTED_EDGE ( 'NONE', *, *, #36, .T. ) ;
#199 = VERTEX_POINT ( 'NONE', #97 ) ;
#200 = DIRECTION ( 'NONE',  ( 0.000000000000000000, 0.000000000000000000, 1.000000000000000000 ) ) ;
#201 = VERTEX_POINT ( 'NONE', #77 ) ;
#202 = ORGANIZATION ( 'NEURÈENÝ', 'NEURÈENÝ', '' ) ;
#203 = DIRECTION ( 'NONE',  ( 1.000000000000000000, 0.000000000000000000, -0.000000000000000000 ) ) ;
#204 = LINE ( 'NONE', #179, #93 ) ;
#205 = CARTESIAN_POINT ( 'NONE',  ( 0.000000000000000000, 0.000000000000000000, 5.000000000000000000 ) ) ;
#206 = DIRECTION ( 'NONE',  ( 0.000000000000000000, 0.000000000000000000, 1.000000000000000000 ) ) ;
#207 = EDGE_CURVE ( 'NONE', #91, #21, #254, .T. ) ;
#208 = COORDINATED_UNIVERSAL_TIME_OFFSET ( 1, 0, .AHEAD. ) ;
#209 = PERSON_AND_ORGANIZATION ( #129, #202 ) ;
#210 = SHAPE_DEFINITION_REPRESENTATION ( #190, #96 ) ;
#211 = AXIS2_PLACEMENT_3D ( 'NONE', #29, #206, #246 ) ;
#212 = APPROVAL_DATE_TIME ( #78, #243 ) ;
#213 = APPROVAL_PERSON_ORGANIZATION ( #209, #164, #102 ) ;
#214 = DIRECTION ( 'NONE',  ( -1.000000000000000000, 0.000000000000000000, 0.000000000000000000 ) ) ;
#215 = CARTESIAN_POINT ( 'NONE',  ( -8.000000000000000000, 0.000000000000000000, 5.000000000000000000 ) ) ;
#216 = ORIENTED_EDGE ( 'NONE', *, *, #36, .F. ) ;
#217 = MANIFOLD_SOLID_BREP ( 'Pøidat vysunutím3', #123 ) ;
#218 = CARTESIAN_POINT ( 'NONE',  ( 0.000000000000000000, 0.000000000000000000, 0.000000000000000000 ) ) ;
#219 = AXIS2_PLACEMENT_3D ( 'NONE', #109, #15, #203 ) ;
#220 = DIRECTION ( 'NONE',  ( 0.000000000000000000, 0.000000000000000000, 1.000000000000000000 ) ) ;
#221 = FACE_BOUND ( 'NONE', #48, .T. ) ;
#222 = FACE_OUTER_BOUND ( 'NONE', #41, .T. ) ;
#223 = AXIS2_PLACEMENT_3D ( 'NONE', #46, #7, #152 ) ;
#224 = CARTESIAN_POINT ( 'NONE',  ( -5.250000000000000000, 0.000000000000000000, 165.0000000000000000 ) ) ;
#225 = EDGE_CURVE ( 'NONE', #83, #201, #34, .T. ) ;
#226 = DIRECTION ( 'NONE',  ( 0.000000000000000000, 0.000000000000000000, 1.000000000000000000 ) ) ;
#227 = APPROVAL_ROLE ( '' ) ;
#228 = SECURITY_CLASSIFICATION_LEVEL ( 'unclassified' ) ;
#229 = PERSON_AND_ORGANIZATION ( #129, #202 ) ;
#230 = DATE_AND_TIME ( #140, #12 ) ;
#231 = ORIENTED_EDGE ( 'NONE', *, *, #225, .F. ) ;
#232 = VERTEX_POINT ( 'NONE', #28 ) ;
#233 = CARTESIAN_POINT ( 'NONE',  ( 0.000000000000000000, 0.000000000000000000, 165.0000000000000000 ) ) ;
#234 = DIRECTION ( 'NONE',  ( 0.000000000000000000, 0.000000000000000000, 1.000000000000000000 ) ) ;
#235 = ORIENTED_EDGE ( 'NONE', *, *, #149, .F. ) ;
#236 = EDGE_CURVE ( 'NONE', #59, #83, #117, .T. ) ;
#237 = CARTESIAN_POINT ( 'NONE',  ( 0.000000000000000000, 0.000000000000000000, 0.000000000000000000 ) ) ;
#238 = DIRECTION ( 'NONE',  ( 1.000000000000000000, 0.000000000000000000, 0.000000000000000000 ) ) ;
#239 = CARTESIAN_POINT ( 'NONE',  ( 0.000000000000000000, 0.000000000000000000, 0.000000000000000000 ) ) ;
#240 = DIRECTION ( 'NONE',  ( 1.000000000000000000, 0.000000000000000000, 0.000000000000000000 ) ) ;
#241 = AXIS2_PLACEMENT_3D ( 'NONE', #176, #113, #132 ) ;
#242 = ORIENTED_EDGE ( 'NONE', *, *, #193, .T. ) ;
#243 = APPROVAL ( #32, 'NEURÈENÝ' ) ;
#244 = APPROVAL_DATE_TIME ( #230, #164 ) ;
#245 = CIRCLE ( 'NONE', #37, 5.250000000000000000 ) ;
#246 = DIRECTION ( 'NONE',  ( 1.000000000000000000, 0.000000000000000000, 0.000000000000000000 ) ) ;
#247 = PERSON_AND_ORGANIZATION_ROLE ( 'creator' ) ;
#248 = ORIENTED_EDGE ( 'NONE', *, *, #225, .T. ) ;
#249 = CALENDAR_DATE ( 2022, 7, 7 ) ;
#250 = PERSON_AND_ORGANIZATION ( #129, #202 ) ;
#251 = PRODUCT_DEFINITION_FORMATION_WITH_SPECIFIED_SOURCE ( 'LIBOVOLNÝ', '', #186, .NOT_KNOWN. ) ;
#252 = APPLICATION_CONTEXT ( 'configuration controlled 3d designs of mechanical parts and assemblies' ) ;
#253 = AXIS2_PLACEMENT_3D ( 'NONE', #148, #172, #238 ) ;
#254 = CIRCLE ( 'NONE', #136, 8.000000000000000000 ) ;
#255 = CARTESIAN_POINT ( 'NONE',  ( 8.000000000000000000, 9.797174393178825657E-16, 5.000000000000000000 ) ) ;
ENDSEC;
END-ISO-10303-21;
