ISO-10303-21;
HEADER;
FILE_DESCRIPTION (( 'STEP AP203' ),
    '1' );
FILE_NAME ('e742.STEP',
    '2022-07-07T17:31:27',
    ( '' ),
    ( '' ),
    'SwSTEP 2.0',
    'SolidWorks 2019',
    '' );
FILE_SCHEMA (( 'CONFIG_CONTROL_DESIGN' ));
ENDSEC;

DATA;
#1 = LOCAL_TIME ( 19, 31, 27.00000000000000000, #112 ) ;
#2 = CARTESIAN_POINT ( 'NONE',  ( -7.000000000000000000, 0.000000000000000000, 5.000000000000000000 ) ) ;
#3 = CC_DESIGN_PERSON_AND_ORGANIZATION_ASSIGNMENT ( #18, #83, ( #147 ) ) ;
#4 = SHAPE_DEFINITION_REPRESENTATION ( #32, #56 ) ;
#5 = CARTESIAN_POINT ( 'NONE',  ( 4.099999999999999645, 5.021051876504147385E-16, 5.000000000000000000 ) ) ;
#6 = DATE_AND_TIME ( #178, #180 ) ;
#7 = AXIS2_PLACEMENT_3D ( 'NONE', #119, #194, #116 ) ;
#8 = ADVANCED_FACE ( 'NONE', ( #235 ), #152, .T. ) ;
#9 = LOCAL_TIME ( 19, 31, 27.00000000000000000, #65 ) ;
#10 = EDGE_CURVE ( 'NONE', #129, #96, #199, .T. ) ;
#11 = CARTESIAN_POINT ( 'NONE',  ( 7.000000000000000000, 8.572527594031473190E-16, 5.000000000000000000 ) ) ;
#12 = ORIENTED_EDGE ( 'NONE', *, *, #202, .F. ) ;
#13 = EDGE_CURVE ( 'NONE', #155, #88, #161, .T. ) ;
#14 = VERTEX_POINT ( 'NONE', #193 ) ;
#15 = FACE_OUTER_BOUND ( 'NONE', #227, .T. ) ;
#16 = DIRECTION ( 'NONE',  ( 1.000000000000000000, 0.000000000000000000, 0.000000000000000000 ) ) ;
#17 = APPLICATION_CONTEXT ( 'configuration controlled 3d designs of mechanical parts and assemblies' ) ;
#18 = PERSON_AND_ORGANIZATION ( #169, #186 ) ;
#19 = LINE ( 'NONE', #11, #79 ) ;
#20 = DATE_AND_TIME ( #95, #1 ) ;
#21 = AXIS2_PLACEMENT_3D ( 'NONE', #97, #175, #55 ) ;
#22 = FACE_OUTER_BOUND ( 'NONE', #34, .T. ) ;
#23 = CARTESIAN_POINT ( 'NONE',  ( 7.000000000000000000, 8.572527594031473190E-16, 0.000000000000000000 ) ) ;
#24 = DIRECTION ( 'NONE',  ( 0.000000000000000000, 0.000000000000000000, 1.000000000000000000 ) ) ;
#25 = CIRCLE ( 'NONE', #239, 4.099999999999999645 ) ;
#26 = FACE_OUTER_BOUND ( 'NONE', #90, .T. ) ;
#27 = PERSON_AND_ORGANIZATION ( #169, #186 ) ;
#28 = AXIS2_PLACEMENT_3D ( 'NONE', #82, #204, #16 ) ;
#29 = APPROVAL ( #167, 'NEURÈENÝ' ) ;
#30 = CIRCLE ( 'NONE', #244, 4.099999999999999645 ) ;
#31 = FACE_OUTER_BOUND ( 'NONE', #173, .T. ) ;
#32 = PRODUCT_DEFINITION_SHAPE ( 'NONE', 'NONE',  #254 ) ;
#33 =( NAMED_UNIT ( * ) SI_UNIT ( $, .STERADIAN. ) SOLID_ANGLE_UNIT ( ) );
#34 = EDGE_LOOP ( 'NONE', ( #132, #231, #115, #93 ) ) ;
#35 = LINE ( 'NONE', #108, #139 ) ;
#36 = ORIENTED_EDGE ( 'NONE', *, *, #162, .F. ) ;
#37 = PERSON_AND_ORGANIZATION_ROLE ( 'design_owner' ) ;
#38 = DATE_AND_TIME ( #250, #143 ) ;
#39 = EDGE_CURVE ( 'NONE', #224, #53, #156, .T. ) ;
#40 = CARTESIAN_POINT ( 'NONE',  ( 4.099999999999999645, 5.021051876504147385E-16, 405.0000000000000000 ) ) ;
#41 = PLANE ( 'NONE',  #218 ) ;
#42 = FACE_OUTER_BOUND ( 'NONE', #110, .T. ) ;
#43 = DATE_AND_TIME ( #101, #125 ) ;
#44 = APPROVAL_PERSON_ORGANIZATION ( #215, #198, #124 ) ;
#45 = CC_DESIGN_SECURITY_CLASSIFICATION ( #172, ( #147 ) ) ;
#46 = ADVANCED_FACE ( 'NONE', ( #26 ), #41, .F. ) ;
#47 = VECTOR ( 'NONE', #253, 1000.000000000000000 ) ;
#48 = DIRECTION ( 'NONE',  ( -0.000000000000000000, -0.000000000000000000, -1.000000000000000000 ) ) ;
#49 = PERSON_AND_ORGANIZATION ( #169, #186 ) ;
#50 = CYLINDRICAL_SURFACE ( 'NONE', #229, 7.000000000000000000 ) ;
#51 = ORIENTED_EDGE ( 'NONE', *, *, #10, .T. ) ;
#52 = AXIS2_PLACEMENT_3D ( 'NONE', #209, #120, #122 ) ;
#53 = VERTEX_POINT ( 'NONE', #137 ) ;
#54 = APPLICATION_PROTOCOL_DEFINITION ( 'international standard', 'config_control_design', 1994, #17 ) ;
#55 = DIRECTION ( 'NONE',  ( -1.000000000000000000, 0.000000000000000000, 0.000000000000000000 ) ) ;
#56 = ADVANCED_BREP_SHAPE_REPRESENTATION ( 'e742', ( #134, #158 ), #210 ) ;
#57 = DIRECTION ( 'NONE',  ( 0.000000000000000000, 0.000000000000000000, 1.000000000000000000 ) ) ;
#58 = CIRCLE ( 'NONE', #216, 4.099999999999999645 ) ;
#59 = CC_DESIGN_PERSON_AND_ORGANIZATION_ASSIGNMENT ( #27, #77, ( #172 ) ) ;
#60 = ORIENTED_EDGE ( 'NONE', *, *, #13, .F. ) ;
#61 = FACE_BOUND ( 'NONE', #187, .T. ) ;
#62 = CLOSED_SHELL ( 'NONE', ( #8, #183, #241, #123, #46, #104, #80 ) ) ;
#63 = CC_DESIGN_DATE_AND_TIME_ASSIGNMENT ( #208, #160, ( #254 ) ) ;
#64 = DIRECTION ( 'NONE',  ( 1.000000000000000000, 0.000000000000000000, 0.000000000000000000 ) ) ;
#65 = COORDINATED_UNIVERSAL_TIME_OFFSET ( 1, 0, .AHEAD. ) ;
#66 = APPROVAL_PERSON_ORGANIZATION ( #148, #118, #72 ) ;
#67 = ORIENTED_EDGE ( 'NONE', *, *, #238, .T. ) ;
#68 = APPLICATION_PROTOCOL_DEFINITION ( 'international standard', 'config_control_design', 1994, #226 ) ;
#69 = EDGE_LOOP ( 'NONE', ( #165, #251, #51, #36 ) ) ;
#70 = EDGE_CURVE ( 'NONE', #73, #129, #211, .T. ) ;
#71 = CC_DESIGN_APPROVAL ( #198, ( #172 ) ) ;
#72 = APPROVAL_ROLE ( '' ) ;
#73 = VERTEX_POINT ( 'NONE', #40 ) ;
#74 = CARTESIAN_POINT ( 'NONE',  ( 0.000000000000000000, 0.000000000000000000, 0.000000000000000000 ) ) ;
#75 = DIRECTION ( 'NONE',  ( 0.000000000000000000, 0.000000000000000000, 1.000000000000000000 ) ) ;
#76 = CARTESIAN_POINT ( 'NONE',  ( 0.000000000000000000, 0.000000000000000000, 5.000000000000000000 ) ) ;
#77 = PERSON_AND_ORGANIZATION_ROLE ( 'classification_officer' ) ;
#78 = APPROVAL_DATE_TIME ( #6, #198 ) ;
#79 = VECTOR ( 'NONE', #182, 1000.000000000000000 ) ;
#80 = ADVANCED_FACE ( 'NONE', ( #42 ), #236, .T. ) ;
#81 = CIRCLE ( 'NONE', #154, 7.000000000000000000 ) ;
#82 = CARTESIAN_POINT ( 'NONE',  ( 0.000000000000000000, 0.000000000000000000, 5.000000000000000000 ) ) ;
#83 = PERSON_AND_ORGANIZATION_ROLE ( 'creator' ) ;
#84 = EDGE_CURVE ( 'NONE', #14, #73, #25, .T. ) ;
#85 = ORIENTED_EDGE ( 'NONE', *, *, #157, .F. ) ;
#86 = DIRECTION ( 'NONE',  ( -1.000000000000000000, 0.000000000000000000, 0.000000000000000000 ) ) ;
#87 = CC_DESIGN_APPROVAL ( #118, ( #147 ) ) ;
#88 = VERTEX_POINT ( 'NONE', #23 ) ;
#89 = DIRECTION ( 'NONE',  ( -0.000000000000000000, -0.000000000000000000, -1.000000000000000000 ) ) ;
#90 = EDGE_LOOP ( 'NONE', ( #60, #12 ) ) ;
#91 = DIRECTION ( 'NONE',  ( 0.000000000000000000, 0.000000000000000000, 1.000000000000000000 ) ) ;
#92 = CALENDAR_DATE ( 2022, 7, 7 ) ;
#93 = ORIENTED_EDGE ( 'NONE', *, *, #157, .T. ) ;
#94 = DIRECTION ( 'NONE',  ( 1.000000000000000000, 0.000000000000000000, 0.000000000000000000 ) ) ;
#95 = CALENDAR_DATE ( 2022, 7, 7 ) ;
#96 = VERTEX_POINT ( 'NONE', #98 ) ;
#97 = CARTESIAN_POINT ( 'NONE',  ( 0.000000000000000000, 0.000000000000000000, 405.0000000000000000 ) ) ;
#98 = CARTESIAN_POINT ( 'NONE',  ( -4.099999999999999645, 0.000000000000000000, 5.000000000000000000 ) ) ;
#99 = DIRECTION ( 'NONE',  ( 1.000000000000000000, 0.000000000000000000, -0.000000000000000000 ) ) ;
#100 = PLANE ( 'NONE',  #141 ) ;
#101 = CALENDAR_DATE ( 2022, 7, 7 ) ;
#102 = UNCERTAINTY_MEASURE_WITH_UNIT (LENGTH_MEASURE( 1.000000000000000082E-05 ), #164, 'distance_accuracy_value', 'NONE');
#103 = AXIS2_PLACEMENT_3D ( 'NONE', #76, #75, #94 ) ;
#104 = ADVANCED_FACE ( 'NONE', ( #22 ), #177, .T. ) ;
#105 = EDGE_CURVE ( 'NONE', #224, #155, #174, .T. ) ;
#106 = CARTESIAN_POINT ( 'NONE',  ( 0.000000000000000000, 0.000000000000000000, 5.000000000000000000 ) ) ;
#107 = ORIENTED_EDGE ( 'NONE', *, *, #151, .F. ) ;
#108 = CARTESIAN_POINT ( 'NONE',  ( -4.099999999999999645, 0.000000000000000000, 405.0000000000000000 ) ) ;
#109 = APPROVAL_PERSON_ORGANIZATION ( #49, #29, #190 ) ;
#110 = EDGE_LOOP ( 'NONE', ( #163, #67 ) ) ;
#111 = DIRECTION ( 'NONE',  ( 1.000000000000000000, 0.000000000000000000, 0.000000000000000000 ) ) ;
#112 = COORDINATED_UNIVERSAL_TIME_OFFSET ( 1, 0, .AHEAD. ) ;
#113 = ORIENTED_EDGE ( 'NONE', *, *, #202, .T. ) ;
#114 = PERSON_AND_ORGANIZATION_ROLE ( 'creator' ) ;
#115 = ORIENTED_EDGE ( 'NONE', *, *, #162, .T. ) ;
#116 = DIRECTION ( 'NONE',  ( 1.000000000000000000, 0.000000000000000000, -0.000000000000000000 ) ) ;
#117 = AXIS2_PLACEMENT_3D ( 'NONE', #106, #48, #181 ) ;
#118 = APPROVAL ( #207, 'NEURÈENÝ' ) ;
#119 = CARTESIAN_POINT ( 'NONE',  ( 0.000000000000000000, 0.000000000000000000, 405.0000000000000000 ) ) ;
#120 = DIRECTION ( 'NONE',  ( -0.000000000000000000, -0.000000000000000000, -1.000000000000000000 ) ) ;
#121 = DATE_TIME_ROLE ( 'classification_date' ) ;
#122 = DIRECTION ( 'NONE',  ( -1.000000000000000000, 0.000000000000000000, 0.000000000000000000 ) ) ;
#123 = ADVANCED_FACE ( 'NONE', ( #61, #153 ), #100, .T. ) ;
#124 = APPROVAL_ROLE ( '' ) ;
#125 = LOCAL_TIME ( 19, 31, 27.00000000000000000, #140 ) ;
#126 = CARTESIAN_POINT ( 'NONE',  ( 0.000000000000000000, 0.000000000000000000, 5.000000000000000000 ) ) ;
#127 = CARTESIAN_POINT ( 'NONE',  ( -7.000000000000000000, 0.000000000000000000, 5.000000000000000000 ) ) ;
#128 = ORIENTED_EDGE ( 'NONE', *, *, #135, .F. ) ;
#129 = VERTEX_POINT ( 'NONE', #5 ) ;
#130 = AXIS2_PLACEMENT_3D ( 'NONE', #252, #57, #212 ) ;
#131 = APPROVAL_DATE_TIME ( #38, #29 ) ;
#132 = ORIENTED_EDGE ( 'NONE', *, *, #70, .F. ) ;
#133 = DIRECTION ( 'NONE',  ( 1.000000000000000000, 0.000000000000000000, 0.000000000000000000 ) ) ;
#134 = MANIFOLD_SOLID_BREP ( 'Pøidat vysunutím3', #62 ) ;
#135 = EDGE_CURVE ( 'NONE', #53, #88, #19, .T. ) ;
#136 = CARTESIAN_POINT ( 'NONE',  ( 0.000000000000000000, 0.000000000000000000, 5.000000000000000000 ) ) ;
#137 = CARTESIAN_POINT ( 'NONE',  ( 7.000000000000000000, 8.572527594031473190E-16, 5.000000000000000000 ) ) ;
#138 = CARTESIAN_POINT ( 'NONE',  ( 0.000000000000000000, 0.000000000000000000, 5.000000000000000000 ) ) ;
#139 = VECTOR ( 'NONE', #248, 1000.000000000000000 ) ;
#140 = COORDINATED_UNIVERSAL_TIME_OFFSET ( 1, 0, .AHEAD. ) ;
#141 = AXIS2_PLACEMENT_3D ( 'NONE', #138, #214, #195 ) ;
#142 = APPROVAL_DATE_TIME ( #20, #118 ) ;
#143 = LOCAL_TIME ( 19, 31, 27.00000000000000000, #189 ) ;
#144 = CARTESIAN_POINT ( 'NONE',  ( 0.000000000000000000, 0.000000000000000000, 5.000000000000000000 ) ) ;
#145 =( NAMED_UNIT ( * ) PLANE_ANGLE_UNIT ( ) SI_UNIT ( $, .RADIAN. ) );
#146 = ORIENTED_EDGE ( 'NONE', *, *, #39, .T. ) ;
#147 = PRODUCT_DEFINITION_FORMATION_WITH_SPECIFIED_SOURCE ( 'LIBOVOLNÝ', '', #249, .NOT_KNOWN. ) ;
#148 = PERSON_AND_ORGANIZATION ( #169, #186 ) ;
#149 = ORIENTED_EDGE ( 'NONE', *, *, #13, .T. ) ;
#150 = CARTESIAN_POINT ( 'NONE',  ( 4.099999999999999645, 5.021051876504147385E-16, 405.0000000000000000 ) ) ;
#151 = EDGE_CURVE ( 'NONE', #53, #224, #196, .T. ) ;
#152 = CYLINDRICAL_SURFACE ( 'NONE', #21, 4.099999999999999645 ) ;
#153 = FACE_OUTER_BOUND ( 'NONE', #247, .T. ) ;
#154 = AXIS2_PLACEMENT_3D ( 'NONE', #240, #159, #242 ) ;
#155 = VERTEX_POINT ( 'NONE', #245 ) ;
#156 = CIRCLE ( 'NONE', #192, 7.000000000000000000 ) ;
#157 = EDGE_CURVE ( 'NONE', #96, #129, #58, .T. ) ;
#158 = AXIS2_PLACEMENT_3D ( 'NONE', #228, #91, #205 ) ;
#159 = DIRECTION ( 'NONE',  ( 0.000000000000000000, 0.000000000000000000, 1.000000000000000000 ) ) ;
#160 = DATE_TIME_ROLE ( 'creation_date' ) ;
#161 = CIRCLE ( 'NONE', #130, 7.000000000000000000 ) ;
#162 = EDGE_CURVE ( 'NONE', #14, #96, #35, .T. ) ;
#163 = ORIENTED_EDGE ( 'NONE', *, *, #84, .T. ) ;
#164 =( LENGTH_UNIT ( ) NAMED_UNIT ( * ) SI_UNIT ( .MILLI., .METRE. ) );
#165 = ORIENTED_EDGE ( 'NONE', *, *, #238, .F. ) ;
#166 = DESIGN_CONTEXT ( 'detailed design', #17, 'design' ) ;
#167 = APPROVAL_STATUS ( 'not_yet_approved' ) ;
#168 = ORIENTED_EDGE ( 'NONE', *, *, #135, .T. ) ;
#169 = PERSON ( 'NEURÈENÝ', 'NEURÈENÝ', 'NEURÈENÝ', ('NEURÈENÝ'), ('NEURÈENÝ'), ('NEURÈENÝ') ) ;
#170 = VECTOR ( 'NONE', #255, 1000.000000000000000 ) ;
#171 = DIRECTION ( 'NONE',  ( 0.000000000000000000, 0.000000000000000000, 1.000000000000000000 ) ) ;
#172 = SECURITY_CLASSIFICATION ( '', '', #237 ) ;
#173 = EDGE_LOOP ( 'NONE', ( #107, #168, #113, #222 ) ) ;
#174 = LINE ( 'NONE', #2, #47 ) ;
#175 = DIRECTION ( 'NONE',  ( -0.000000000000000000, -0.000000000000000000, -1.000000000000000000 ) ) ;
#176 = DIRECTION ( 'NONE',  ( 1.000000000000000000, 0.000000000000000000, 0.000000000000000000 ) ) ;
#177 = CYLINDRICAL_SURFACE ( 'NONE', #52, 4.099999999999999645 ) ;
#178 = CALENDAR_DATE ( 2022, 7, 7 ) ;
#179 = CC_DESIGN_APPROVAL ( #29, ( #254 ) ) ;
#180 = LOCAL_TIME ( 19, 31, 27.00000000000000000, #197 ) ;
#181 = DIRECTION ( 'NONE',  ( -1.000000000000000000, 0.000000000000000000, 0.000000000000000000 ) ) ;
#182 = DIRECTION ( 'NONE',  ( -0.000000000000000000, -0.000000000000000000, -1.000000000000000000 ) ) ;
#183 = ADVANCED_FACE ( 'NONE', ( #31 ), #220, .T. ) ;
#184 = ORIENTED_EDGE ( 'NONE', *, *, #10, .F. ) ;
#185 = CARTESIAN_POINT ( 'NONE',  ( 0.000000000000000000, 0.000000000000000000, 405.0000000000000000 ) ) ;
#186 = ORGANIZATION ( 'NEURÈENÝ', 'NEURÈENÝ', '' ) ;
#187 = EDGE_LOOP ( 'NONE', ( #85, #184 ) ) ;
#188 = MECHANICAL_CONTEXT ( 'NONE', #226, 'mechanical' ) ;
#189 = COORDINATED_UNIVERSAL_TIME_OFFSET ( 1, 0, .AHEAD. ) ;
#190 = APPROVAL_ROLE ( '' ) ;
#191 = ORIENTED_EDGE ( 'NONE', *, *, #105, .T. ) ;
#192 = AXIS2_PLACEMENT_3D ( 'NONE', #136, #24, #176 ) ;
#193 = CARTESIAN_POINT ( 'NONE',  ( -4.099999999999999645, 0.000000000000000000, 405.0000000000000000 ) ) ;
#194 = DIRECTION ( 'NONE',  ( 0.000000000000000000, 0.000000000000000000, 1.000000000000000000 ) ) ;
#195 = DIRECTION ( 'NONE',  ( 1.000000000000000000, 0.000000000000000000, -0.000000000000000000 ) ) ;
#196 = CIRCLE ( 'NONE', #28, 7.000000000000000000 ) ;
#197 = COORDINATED_UNIVERSAL_TIME_OFFSET ( 1, 0, .AHEAD. ) ;
#198 = APPROVAL ( #213, 'NEURÈENÝ' ) ;
#199 = CIRCLE ( 'NONE', #103, 4.099999999999999645 ) ;
#200 = PRODUCT_RELATED_PRODUCT_CATEGORY ( 'detail', '', ( #249 ) ) ;
#201 = DIRECTION ( 'NONE',  ( 0.000000000000000000, 0.000000000000000000, 1.000000000000000000 ) ) ;
#202 = EDGE_CURVE ( 'NONE', #88, #155, #81, .T. ) ;
#203 = ORIENTED_EDGE ( 'NONE', *, *, #39, .F. ) ;
#204 = DIRECTION ( 'NONE',  ( 0.000000000000000000, 0.000000000000000000, 1.000000000000000000 ) ) ;
#205 = DIRECTION ( 'NONE',  ( 1.000000000000000000, 0.000000000000000000, 0.000000000000000000 ) ) ;
#206 = CC_DESIGN_PERSON_AND_ORGANIZATION_ASSIGNMENT ( #230, #221, ( #147 ) ) ;
#207 = APPROVAL_STATUS ( 'not_yet_approved' ) ;
#208 = DATE_AND_TIME ( #92, #9 ) ;
#209 = CARTESIAN_POINT ( 'NONE',  ( 0.000000000000000000, 0.000000000000000000, 405.0000000000000000 ) ) ;
#210 =( GEOMETRIC_REPRESENTATION_CONTEXT ( 3 ) GLOBAL_UNCERTAINTY_ASSIGNED_CONTEXT ( ( #102 ) ) GLOBAL_UNIT_ASSIGNED_CONTEXT ( ( #164, #145, #33 ) ) REPRESENTATION_CONTEXT ( 'NONE', 'WORKASPACE' ) );
#211 = LINE ( 'NONE', #150, #170 ) ;
#212 = DIRECTION ( 'NONE',  ( 1.000000000000000000, 0.000000000000000000, 0.000000000000000000 ) ) ;
#213 = APPROVAL_STATUS ( 'not_yet_approved' ) ;
#214 = DIRECTION ( 'NONE',  ( 0.000000000000000000, 0.000000000000000000, 1.000000000000000000 ) ) ;
#215 = PERSON_AND_ORGANIZATION ( #169, #186 ) ;
#216 = AXIS2_PLACEMENT_3D ( 'NONE', #144, #201, #111 ) ;
#217 = CC_DESIGN_DATE_AND_TIME_ASSIGNMENT ( #43, #121, ( #172 ) ) ;
#218 = AXIS2_PLACEMENT_3D ( 'NONE', #74, #233, #99 ) ;
#219 = PERSON_AND_ORGANIZATION ( #169, #186 ) ;
#220 = CYLINDRICAL_SURFACE ( 'NONE', #117, 7.000000000000000000 ) ;
#221 = PERSON_AND_ORGANIZATION_ROLE ( 'design_supplier' ) ;
#222 = ORIENTED_EDGE ( 'NONE', *, *, #105, .F. ) ;
#223 = DIRECTION ( 'NONE',  ( 0.000000000000000000, 0.000000000000000000, 1.000000000000000000 ) ) ;
#224 = VERTEX_POINT ( 'NONE', #127 ) ;
#225 = CC_DESIGN_PERSON_AND_ORGANIZATION_ASSIGNMENT ( #219, #37, ( #249 ) ) ;
#226 = APPLICATION_CONTEXT ( 'configuration controlled 3d designs of mechanical parts and assemblies' ) ;
#227 = EDGE_LOOP ( 'NONE', ( #128, #203, #191, #149 ) ) ;
#228 = CARTESIAN_POINT ( 'NONE',  ( 0.000000000000000000, 0.000000000000000000, 0.000000000000000000 ) ) ;
#229 = AXIS2_PLACEMENT_3D ( 'NONE', #126, #89, #86 ) ;
#230 = PERSON_AND_ORGANIZATION ( #169, #186 ) ;
#231 = ORIENTED_EDGE ( 'NONE', *, *, #84, .F. ) ;
#232 = CARTESIAN_POINT ( 'NONE',  ( 0.000000000000000000, 0.000000000000000000, 405.0000000000000000 ) ) ;
#233 = DIRECTION ( 'NONE',  ( 0.000000000000000000, 0.000000000000000000, 1.000000000000000000 ) ) ;
#234 = CC_DESIGN_PERSON_AND_ORGANIZATION_ASSIGNMENT ( #243, #114, ( #254 ) ) ;
#235 = FACE_OUTER_BOUND ( 'NONE', #69, .T. ) ;
#236 = PLANE ( 'NONE',  #7 ) ;
#237 = SECURITY_CLASSIFICATION_LEVEL ( 'unclassified' ) ;
#238 = EDGE_CURVE ( 'NONE', #73, #14, #30, .T. ) ;
#239 = AXIS2_PLACEMENT_3D ( 'NONE', #232, #171, #133 ) ;
#240 = CARTESIAN_POINT ( 'NONE',  ( 0.000000000000000000, 0.000000000000000000, 0.000000000000000000 ) ) ;
#241 = ADVANCED_FACE ( 'NONE', ( #15 ), #50, .T. ) ;
#242 = DIRECTION ( 'NONE',  ( 1.000000000000000000, 0.000000000000000000, 0.000000000000000000 ) ) ;
#243 = PERSON_AND_ORGANIZATION ( #169, #186 ) ;
#244 = AXIS2_PLACEMENT_3D ( 'NONE', #185, #223, #64 ) ;
#245 = CARTESIAN_POINT ( 'NONE',  ( -7.000000000000000000, 0.000000000000000000, 0.000000000000000000 ) ) ;
#246 = ORIENTED_EDGE ( 'NONE', *, *, #151, .T. ) ;
#247 = EDGE_LOOP ( 'NONE', ( #146, #246 ) ) ;
#248 = DIRECTION ( 'NONE',  ( -0.000000000000000000, -0.000000000000000000, -1.000000000000000000 ) ) ;
#249 = PRODUCT ( 'e742', 'e742', '', ( #188 ) ) ;
#250 = CALENDAR_DATE ( 2022, 7, 7 ) ;
#251 = ORIENTED_EDGE ( 'NONE', *, *, #70, .T. ) ;
#252 = CARTESIAN_POINT ( 'NONE',  ( 0.000000000000000000, 0.000000000000000000, 0.000000000000000000 ) ) ;
#253 = DIRECTION ( 'NONE',  ( -0.000000000000000000, -0.000000000000000000, -1.000000000000000000 ) ) ;
#254 = PRODUCT_DEFINITION ( 'NEZNÁMÝ', '', #147, #166 ) ;
#255 = DIRECTION ( 'NONE',  ( -0.000000000000000000, -0.000000000000000000, -1.000000000000000000 ) ) ;
ENDSEC;
END-ISO-10303-21;
