ISO-10303-21;
HEADER;
FILE_DESCRIPTION (( 'STEP AP203' ),
    '1' );
FILE_NAME ('1c47.STEP',
    '2022-07-07T17:13:26',
    ( '' ),
    ( '' ),
    'SwSTEP 2.0',
    'SolidWorks 2019',
    '' );
FILE_SCHEMA (( 'CONFIG_CONTROL_DESIGN' ));
ENDSEC;

DATA;
#1 = PERSON_AND_ORGANIZATION ( #66, #237 ) ;
#2 = DIRECTION ( 'NONE',  ( -0.000000000000000000, -0.000000000000000000, -1.000000000000000000 ) ) ;
#3 = AXIS2_PLACEMENT_3D ( 'NONE', #52, #180, #189 ) ;
#4 = PERSON_AND_ORGANIZATION_ROLE ( 'creator' ) ;
#5 = APPROVAL_DATE_TIME ( #205, #110 ) ;
#6 = VERTEX_POINT ( 'NONE', #140 ) ;
#7 = CIRCLE ( 'NONE', #244, 11.00000000000000000 ) ;
#8 = VERTEX_POINT ( 'NONE', #148 ) ;
#9 = DIRECTION ( 'NONE',  ( 0.000000000000000000, 0.000000000000000000, 1.000000000000000000 ) ) ;
#10 = CC_DESIGN_APPROVAL ( #158, ( #65 ) ) ;
#11 = DIRECTION ( 'NONE',  ( -0.000000000000000000, -0.000000000000000000, -1.000000000000000000 ) ) ;
#12 = PRODUCT ( '1c47', '1c47', '', ( #203 ) ) ;
#13 = PLANE ( 'NONE',  #88 ) ;
#14 = ORIENTED_EDGE ( 'NONE', *, *, #133, .T. ) ;
#15 = DIRECTION ( 'NONE',  ( 1.000000000000000000, 0.000000000000000000, 0.000000000000000000 ) ) ;
#16 = VERTEX_POINT ( 'NONE', #221 ) ;
#17 = DIRECTION ( 'NONE',  ( -0.000000000000000000, -0.000000000000000000, -1.000000000000000000 ) ) ;
#18 = CARTESIAN_POINT ( 'NONE',  ( 0.000000000000000000, 0.000000000000000000, 0.000000000000000000 ) ) ;
#19 = LOCAL_TIME ( 19, 13, 26.00000000000000000, #137 ) ;
#20 = EDGE_CURVE ( 'NONE', #6, #168, #198, .T. ) ;
#21 = MANIFOLD_SOLID_BREP ( 'Pøidat vysunutím3', #49 ) ;
#22 = VECTOR ( 'NONE', #124, 1000.000000000000000 ) ;
#23 = EDGE_CURVE ( 'NONE', #184, #208, #209, .T. ) ;
#24 = AXIS2_PLACEMENT_3D ( 'NONE', #233, #144, #90 ) ;
#25 = APPROVAL_DATE_TIME ( #43, #158 ) ;
#26 = DIRECTION ( 'NONE',  ( 1.000000000000000000, 0.000000000000000000, 0.000000000000000000 ) ) ;
#27 = CIRCLE ( 'NONE', #255, 7.000000000000000000 ) ;
#28 = APPLICATION_PROTOCOL_DEFINITION ( 'international standard', 'config_control_design', 1994, #114 ) ;
#29 = ORIENTED_EDGE ( 'NONE', *, *, #156, .F. ) ;
#30 = ORIENTED_EDGE ( 'NONE', *, *, #197, .F. ) ;
#31 = CARTESIAN_POINT ( 'NONE',  ( -11.00000000000000000, 0.000000000000000000, 0.000000000000000000 ) ) ;
#32 = CIRCLE ( 'NONE', #95, 11.00000000000000000 ) ;
#33 = ORIENTED_EDGE ( 'NONE', *, *, #121, .T. ) ;
#34 = DIRECTION ( 'NONE',  ( 0.000000000000000000, 0.000000000000000000, 1.000000000000000000 ) ) ;
#35 = ORIENTED_EDGE ( 'NONE', *, *, #121, .F. ) ;
#36 = DIRECTION ( 'NONE',  ( -1.000000000000000000, 0.000000000000000000, 0.000000000000000000 ) ) ;
#37 = DIRECTION ( 'NONE',  ( -0.000000000000000000, -0.000000000000000000, -1.000000000000000000 ) ) ;
#38 = ADVANCED_FACE ( 'NONE', ( #150 ), #123, .T. ) ;
#39 = APPROVAL_PERSON_ORGANIZATION ( #246, #110, #183 ) ;
#40 = EDGE_CURVE ( 'NONE', #8, #188, #146, .T. ) ;
#41 = LOCAL_TIME ( 19, 13, 26.00000000000000000, #222 ) ;
#42 = DIRECTION ( 'NONE',  ( 0.000000000000000000, 0.000000000000000000, 1.000000000000000000 ) ) ;
#43 = DATE_AND_TIME ( #48, #41 ) ;
#44 = PERSON_AND_ORGANIZATION ( #66, #237 ) ;
#45 = CC_DESIGN_APPROVAL ( #199, ( #60 ) ) ;
#46 = PERSON_AND_ORGANIZATION ( #66, #237 ) ;
#47 = ORIENTED_EDGE ( 'NONE', *, *, #147, .T. ) ;
#48 = CALENDAR_DATE ( 2022, 7, 7 ) ;
#49 = CLOSED_SHELL ( 'NONE', ( #76, #136, #231, #128, #254, #38, #177 ) ) ;
#50 = EDGE_LOOP ( 'NONE', ( #67, #47 ) ) ;
#51 = FACE_OUTER_BOUND ( 'NONE', #229, .T. ) ;
#52 = CARTESIAN_POINT ( 'NONE',  ( 0.000000000000000000, 0.000000000000000000, 0.000000000000000000 ) ) ;
#53 = ORIENTED_EDGE ( 'NONE', *, *, #116, .T. ) ;
#54 = DIRECTION ( 'NONE',  ( 1.000000000000000000, 0.000000000000000000, 0.000000000000000000 ) ) ;
#55 = CC_DESIGN_SECURITY_CLASSIFICATION ( #60, ( #65 ) ) ;
#56 = CARTESIAN_POINT ( 'NONE',  ( 0.000000000000000000, 0.000000000000000000, 257.0000000000000000 ) ) ;
#57 = CARTESIAN_POINT ( 'NONE',  ( 0.000000000000000000, 0.000000000000000000, 7.000000000000000000 ) ) ;
#58 = CARTESIAN_POINT ( 'NONE',  ( 7.000000000000000000, 8.572527594031473190E-16, 257.0000000000000000 ) ) ;
#59 = CARTESIAN_POINT ( 'NONE',  ( 0.000000000000000000, 0.000000000000000000, 257.0000000000000000 ) ) ;
#60 = SECURITY_CLASSIFICATION ( '', '', #204 ) ;
#61 = CALENDAR_DATE ( 2022, 7, 7 ) ;
#62 = DIRECTION ( 'NONE',  ( 1.000000000000000000, 0.000000000000000000, 0.000000000000000000 ) ) ;
#63 = ORIENTED_EDGE ( 'NONE', *, *, #197, .T. ) ;
#64 = APPROVAL_STATUS ( 'not_yet_approved' ) ;
#65 = PRODUCT_DEFINITION_FORMATION_WITH_SPECIFIED_SOURCE ( 'LIBOVOLNÝ', '', #12, .NOT_KNOWN. ) ;
#66 = PERSON ( 'NEURÈENÝ', 'NEURÈENÝ', 'NEURÈENÝ', ('NEURÈENÝ'), ('NEURÈENÝ'), ('NEURÈENÝ') ) ;
#67 = ORIENTED_EDGE ( 'NONE', *, *, #40, .T. ) ;
#68 = CARTESIAN_POINT ( 'NONE',  ( 7.000000000000000000, 8.572527594031473190E-16, 7.000000000000000000 ) ) ;
#69 = ORIENTED_EDGE ( 'NONE', *, *, #133, .F. ) ;
#70 = CARTESIAN_POINT ( 'NONE',  ( 0.000000000000000000, 0.000000000000000000, 7.000000000000000000 ) ) ;
#71 = DIRECTION ( 'NONE',  ( 0.000000000000000000, 0.000000000000000000, 1.000000000000000000 ) ) ;
#72 = DIRECTION ( 'NONE',  ( 1.000000000000000000, 0.000000000000000000, 0.000000000000000000 ) ) ;
#73 = LINE ( 'NONE', #214, #176 ) ;
#74 = EDGE_CURVE ( 'NONE', #16, #168, #92, .T. ) ;
#75 = CARTESIAN_POINT ( 'NONE',  ( -7.000000000000000000, 0.000000000000000000, 257.0000000000000000 ) ) ;
#76 = ADVANCED_FACE ( 'NONE', ( #230 ), #127, .T. ) ;
#77 = CC_DESIGN_DATE_AND_TIME_ASSIGNMENT ( #185, #83, ( #219 ) ) ;
#78 = AXIS2_PLACEMENT_3D ( 'NONE', #211, #71, #190 ) ;
#79 = PERSON_AND_ORGANIZATION_ROLE ( 'classification_officer' ) ;
#80 = APPROVAL_DATE_TIME ( #238, #199 ) ;
#81 =( LENGTH_UNIT ( ) NAMED_UNIT ( * ) SI_UNIT ( .MILLI., .METRE. ) );
#82 = ORIENTED_EDGE ( 'NONE', *, *, #20, .T. ) ;
#83 = DATE_TIME_ROLE ( 'creation_date' ) ;
#84 = ORIENTED_EDGE ( 'NONE', *, *, #20, .F. ) ;
#85 = AXIS2_PLACEMENT_3D ( 'NONE', #195, #196, #250 ) ;
#86 = ORIENTED_EDGE ( 'NONE', *, *, #175, .F. ) ;
#87 = LINE ( 'NONE', #75, #201 ) ;
#88 = AXIS2_PLACEMENT_3D ( 'NONE', #218, #34, #109 ) ;
#89 = ORIENTED_EDGE ( 'NONE', *, *, #74, .F. ) ;
#90 = DIRECTION ( 'NONE',  ( 1.000000000000000000, 0.000000000000000000, 0.000000000000000000 ) ) ;
#91 = CARTESIAN_POINT ( 'NONE',  ( 0.000000000000000000, 0.000000000000000000, 7.000000000000000000 ) ) ;
#92 = LINE ( 'NONE', #58, #96 ) ;
#93 = LOCAL_TIME ( 19, 13, 26.00000000000000000, #242 ) ;
#94 = DIRECTION ( 'NONE',  ( 1.000000000000000000, 0.000000000000000000, 0.000000000000000000 ) ) ;
#95 = AXIS2_PLACEMENT_3D ( 'NONE', #18, #224, #94 ) ;
#96 = VECTOR ( 'NONE', #17, 1000.000000000000000 ) ;
#97 = PRODUCT_RELATED_PRODUCT_CATEGORY ( 'detail', '', ( #12 ) ) ;
#98 = PERSON_AND_ORGANIZATION ( #66, #237 ) ;
#99 = APPROVAL_STATUS ( 'not_yet_approved' ) ;
#100 = PERSON_AND_ORGANIZATION_ROLE ( 'design_owner' ) ;
#101 = APPROVAL_ROLE ( '' ) ;
#102 = EDGE_LOOP ( 'NONE', ( #126, #130, #166, #29 ) ) ;
#103 = CALENDAR_DATE ( 2022, 7, 7 ) ;
#104 = CIRCLE ( 'NONE', #24, 7.000000000000000000 ) ;
#105 = CARTESIAN_POINT ( 'NONE',  ( 0.000000000000000000, 0.000000000000000000, 7.000000000000000000 ) ) ;
#106 = ORIENTED_EDGE ( 'NONE', *, *, #74, .T. ) ;
#107 = PLANE ( 'NONE',  #85 ) ;
#108 = ORIENTED_EDGE ( 'NONE', *, *, #23, .F. ) ;
#109 = DIRECTION ( 'NONE',  ( 1.000000000000000000, 0.000000000000000000, -0.000000000000000000 ) ) ;
#110 = APPROVAL ( #160, 'NEURÈENÝ' ) ;
#111 = ORIENTED_EDGE ( 'NONE', *, *, #252, .F. ) ;
#112 = CARTESIAN_POINT ( 'NONE',  ( 11.00000000000000000, 1.347111479062088405E-15, 7.000000000000000000 ) ) ;
#113 = CYLINDRICAL_SURFACE ( 'NONE', #157, 11.00000000000000000 ) ;
#114 = APPLICATION_CONTEXT ( 'configuration controlled 3d designs of mechanical parts and assemblies' ) ;
#115 = CC_DESIGN_DATE_AND_TIME_ASSIGNMENT ( #206, #179, ( #60 ) ) ;
#116 = EDGE_CURVE ( 'NONE', #168, #6, #104, .T. ) ;
#117 = LOCAL_TIME ( 19, 13, 26.00000000000000000, #239 ) ;
#118 = AXIS2_PLACEMENT_3D ( 'NONE', #59, #249, #72 ) ;
#119 = PERSON_AND_ORGANIZATION ( #66, #237 ) ;
#120 =( NAMED_UNIT ( * ) PLANE_ANGLE_UNIT ( ) SI_UNIT ( $, .RADIAN. ) );
#121 = EDGE_CURVE ( 'NONE', #223, #6, #87, .T. ) ;
#122 = DIRECTION ( 'NONE',  ( 1.000000000000000000, 0.000000000000000000, 0.000000000000000000 ) ) ;
#123 = CYLINDRICAL_SURFACE ( 'NONE', #170, 7.000000000000000000 ) ;
#124 = DIRECTION ( 'NONE',  ( -0.000000000000000000, -0.000000000000000000, -1.000000000000000000 ) ) ;
#125 =( NAMED_UNIT ( * ) SI_UNIT ( $, .STERADIAN. ) SOLID_ANGLE_UNIT ( ) );
#126 = ORIENTED_EDGE ( 'NONE', *, *, #147, .F. ) ;
#127 = CYLINDRICAL_SURFACE ( 'NONE', #135, 7.000000000000000000 ) ;
#128 = ADVANCED_FACE ( 'NONE', ( #149, #154 ), #13, .T. ) ;
#129 = LOCAL_TIME ( 19, 13, 26.00000000000000000, #159 ) ;
#130 = ORIENTED_EDGE ( 'NONE', *, *, #175, .T. ) ;
#131 = DIRECTION ( 'NONE',  ( 0.000000000000000000, 0.000000000000000000, 1.000000000000000000 ) ) ;
#132 = CARTESIAN_POINT ( 'NONE',  ( 0.000000000000000000, 0.000000000000000000, 257.0000000000000000 ) ) ;
#133 = EDGE_CURVE ( 'NONE', #16, #223, #235, .T. ) ;
#134 = APPLICATION_CONTEXT ( 'configuration controlled 3d designs of mechanical parts and assemblies' ) ;
#135 = AXIS2_PLACEMENT_3D ( 'NONE', #132, #151, #169 ) ;
#136 = ADVANCED_FACE ( 'NONE', ( #228 ), #113, .T. ) ;
#137 = COORDINATED_UNIVERSAL_TIME_OFFSET ( 1, 0, .AHEAD. ) ;
#138 = FACE_OUTER_BOUND ( 'NONE', #213, .T. ) ;
#139 = CARTESIAN_POINT ( 'NONE',  ( 0.000000000000000000, 0.000000000000000000, 0.000000000000000000 ) ) ;
#140 = CARTESIAN_POINT ( 'NONE',  ( -7.000000000000000000, 0.000000000000000000, 7.000000000000000000 ) ) ;
#141 = APPROVAL_ROLE ( '' ) ;
#142 = UNCERTAINTY_MEASURE_WITH_UNIT (LENGTH_MEASURE( 1.000000000000000082E-05 ), #81, 'distance_accuracy_value', 'NONE');
#143 = DIRECTION ( 'NONE',  ( 0.000000000000000000, 0.000000000000000000, 1.000000000000000000 ) ) ;
#144 = DIRECTION ( 'NONE',  ( 0.000000000000000000, 0.000000000000000000, 1.000000000000000000 ) ) ;
#145 = DIRECTION ( 'NONE',  ( -1.000000000000000000, 0.000000000000000000, 0.000000000000000000 ) ) ;
#146 = CIRCLE ( 'NONE', #178, 11.00000000000000000 ) ;
#147 = EDGE_CURVE ( 'NONE', #188, #8, #7, .T. ) ;
#148 = CARTESIAN_POINT ( 'NONE',  ( -11.00000000000000000, 0.000000000000000000, 7.000000000000000000 ) ) ;
#149 = FACE_BOUND ( 'NONE', #215, .T. ) ;
#150 = FACE_OUTER_BOUND ( 'NONE', #245, .T. ) ;
#151 = DIRECTION ( 'NONE',  ( -0.000000000000000000, -0.000000000000000000, -1.000000000000000000 ) ) ;
#152 = APPROVAL_PERSON_ORGANIZATION ( #1, #199, #101 ) ;
#153 = LINE ( 'NONE', #112, #22 ) ;
#154 = FACE_OUTER_BOUND ( 'NONE', #50, .T. ) ;
#155 = AXIS2_PLACEMENT_3D ( 'NONE', #91, #143, #122 ) ;
#156 = EDGE_CURVE ( 'NONE', #8, #208, #73, .T. ) ;
#157 = AXIS2_PLACEMENT_3D ( 'NONE', #193, #37, #36 ) ;
#158 = APPROVAL ( #64, 'NEURÈENÝ' ) ;
#159 = COORDINATED_UNIVERSAL_TIME_OFFSET ( 1, 0, .AHEAD. ) ;
#160 = APPROVAL_STATUS ( 'not_yet_approved' ) ;
#161 = PERSON_AND_ORGANIZATION_ROLE ( 'design_supplier' ) ;
#162 = CC_DESIGN_PERSON_AND_ORGANIZATION_ASSIGNMENT ( #98, #100, ( #12 ) ) ;
#163 = PERSON_AND_ORGANIZATION_ROLE ( 'creator' ) ;
#164 = EDGE_LOOP ( 'NONE', ( #247, #14 ) ) ;
#165 = PERSON_AND_ORGANIZATION ( #66, #237 ) ;
#166 = ORIENTED_EDGE ( 'NONE', *, *, #23, .T. ) ;
#167 = APPROVAL_PERSON_ORGANIZATION ( #165, #158, #141 ) ;
#168 = VERTEX_POINT ( 'NONE', #68 ) ;
#169 = DIRECTION ( 'NONE',  ( -1.000000000000000000, 0.000000000000000000, 0.000000000000000000 ) ) ;
#170 = AXIS2_PLACEMENT_3D ( 'NONE', #56, #11, #172 ) ;
#171 = EDGE_LOOP ( 'NONE', ( #69, #106, #53, #35 ) ) ;
#172 = DIRECTION ( 'NONE',  ( -1.000000000000000000, 0.000000000000000000, 0.000000000000000000 ) ) ;
#173 = FACE_OUTER_BOUND ( 'NONE', #164, .T. ) ;
#174 = CARTESIAN_POINT ( 'NONE',  ( -7.000000000000000000, 0.000000000000000000, 257.0000000000000000 ) ) ;
#175 = EDGE_CURVE ( 'NONE', #188, #184, #153, .T. ) ;
#176 = VECTOR ( 'NONE', #216, 1000.000000000000000 ) ;
#177 = ADVANCED_FACE ( 'NONE', ( #173 ), #107, .T. ) ;
#178 = AXIS2_PLACEMENT_3D ( 'NONE', #70, #251, #15 ) ;
#179 = DATE_TIME_ROLE ( 'classification_date' ) ;
#180 = DIRECTION ( 'NONE',  ( 0.000000000000000000, 0.000000000000000000, 1.000000000000000000 ) ) ;
#181 = CC_DESIGN_PERSON_AND_ORGANIZATION_ASSIGNMENT ( #44, #163, ( #219 ) ) ;
#182 = CALENDAR_DATE ( 2022, 7, 7 ) ;
#183 = APPROVAL_ROLE ( '' ) ;
#184 = VERTEX_POINT ( 'NONE', #212 ) ;
#185 = DATE_AND_TIME ( #103, #93 ) ;
#186 = PERSON_AND_ORGANIZATION ( #66, #237 ) ;
#187 = DESIGN_CONTEXT ( 'detailed design', #134, 'design' ) ;
#188 = VERTEX_POINT ( 'NONE', #232 ) ;
#189 = DIRECTION ( 'NONE',  ( 1.000000000000000000, 0.000000000000000000, -0.000000000000000000 ) ) ;
#190 = DIRECTION ( 'NONE',  ( 1.000000000000000000, 0.000000000000000000, 0.000000000000000000 ) ) ;
#191 = CYLINDRICAL_SURFACE ( 'NONE', #234, 11.00000000000000000 ) ;
#192 = CC_DESIGN_APPROVAL ( #110, ( #219 ) ) ;
#193 = CARTESIAN_POINT ( 'NONE',  ( 0.000000000000000000, 0.000000000000000000, 7.000000000000000000 ) ) ;
#194 = ORIENTED_EDGE ( 'NONE', *, *, #116, .F. ) ;
#195 = CARTESIAN_POINT ( 'NONE',  ( 0.000000000000000000, 0.000000000000000000, 257.0000000000000000 ) ) ;
#196 = DIRECTION ( 'NONE',  ( 0.000000000000000000, 0.000000000000000000, 1.000000000000000000 ) ) ;
#197 = EDGE_CURVE ( 'NONE', #208, #184, #32, .T. ) ;
#198 = CIRCLE ( 'NONE', #155, 7.000000000000000000 ) ;
#199 = APPROVAL ( #99, 'NEURÈENÝ' ) ;
#200 =( GEOMETRIC_REPRESENTATION_CONTEXT ( 3 ) GLOBAL_UNCERTAINTY_ASSIGNED_CONTEXT ( ( #142 ) ) GLOBAL_UNIT_ASSIGNED_CONTEXT ( ( #81, #120, #125 ) ) REPRESENTATION_CONTEXT ( 'NONE', 'WORKASPACE' ) );
#201 = VECTOR ( 'NONE', #248, 1000.000000000000000 ) ;
#202 = CALENDAR_DATE ( 2022, 7, 7 ) ;
#203 = MECHANICAL_CONTEXT ( 'NONE', #114, 'mechanical' ) ;
#204 = SECURITY_CLASSIFICATION_LEVEL ( 'unclassified' ) ;
#205 = DATE_AND_TIME ( #61, #117 ) ;
#206 = DATE_AND_TIME ( #202, #129 ) ;
#207 = APPLICATION_PROTOCOL_DEFINITION ( 'international standard', 'config_control_design', 1994, #134 ) ;
#208 = VERTEX_POINT ( 'NONE', #31 ) ;
#209 = CIRCLE ( 'NONE', #78, 11.00000000000000000 ) ;
#210 = CC_DESIGN_PERSON_AND_ORGANIZATION_ASSIGNMENT ( #46, #4, ( #65 ) ) ;
#211 = CARTESIAN_POINT ( 'NONE',  ( 0.000000000000000000, 0.000000000000000000, 0.000000000000000000 ) ) ;
#212 = CARTESIAN_POINT ( 'NONE',  ( 11.00000000000000000, 1.347111479062088405E-15, 0.000000000000000000 ) ) ;
#213 = EDGE_LOOP ( 'NONE', ( #30, #108 ) ) ;
#214 = CARTESIAN_POINT ( 'NONE',  ( -11.00000000000000000, 0.000000000000000000, 7.000000000000000000 ) ) ;
#215 = EDGE_LOOP ( 'NONE', ( #84, #194 ) ) ;
#216 = DIRECTION ( 'NONE',  ( -0.000000000000000000, -0.000000000000000000, -1.000000000000000000 ) ) ;
#217 = CC_DESIGN_PERSON_AND_ORGANIZATION_ASSIGNMENT ( #119, #161, ( #65 ) ) ;
#218 = CARTESIAN_POINT ( 'NONE',  ( 0.000000000000000000, 0.000000000000000000, 7.000000000000000000 ) ) ;
#219 = PRODUCT_DEFINITION ( 'NEZNÁMÝ', '', #65, #187 ) ;
#220 = CARTESIAN_POINT ( 'NONE',  ( 0.000000000000000000, 0.000000000000000000, 257.0000000000000000 ) ) ;
#221 = CARTESIAN_POINT ( 'NONE',  ( 7.000000000000000000, 8.572527594031473190E-16, 257.0000000000000000 ) ) ;
#222 = COORDINATED_UNIVERSAL_TIME_OFFSET ( 1, 0, .AHEAD. ) ;
#223 = VERTEX_POINT ( 'NONE', #174 ) ;
#224 = DIRECTION ( 'NONE',  ( 0.000000000000000000, 0.000000000000000000, 1.000000000000000000 ) ) ;
#225 = PLANE ( 'NONE',  #3 ) ;
#226 = PRODUCT_DEFINITION_SHAPE ( 'NONE', 'NONE',  #219 ) ;
#227 = ORIENTED_EDGE ( 'NONE', *, *, #156, .T. ) ;
#228 = FACE_OUTER_BOUND ( 'NONE', #102, .T. ) ;
#229 = EDGE_LOOP ( 'NONE', ( #86, #241, #227, #63 ) ) ;
#230 = FACE_OUTER_BOUND ( 'NONE', #171, .T. ) ;
#231 = ADVANCED_FACE ( 'NONE', ( #51 ), #191, .T. ) ;
#232 = CARTESIAN_POINT ( 'NONE',  ( 11.00000000000000000, 1.347111479062088405E-15, 7.000000000000000000 ) ) ;
#233 = CARTESIAN_POINT ( 'NONE',  ( 0.000000000000000000, 0.000000000000000000, 7.000000000000000000 ) ) ;
#234 = AXIS2_PLACEMENT_3D ( 'NONE', #105, #2, #145 ) ;
#235 = CIRCLE ( 'NONE', #118, 7.000000000000000000 ) ;
#236 = AXIS2_PLACEMENT_3D ( 'NONE', #139, #9, #62 ) ;
#237 = ORGANIZATION ( 'NEURÈENÝ', 'NEURÈENÝ', '' ) ;
#238 = DATE_AND_TIME ( #182, #19 ) ;
#239 = COORDINATED_UNIVERSAL_TIME_OFFSET ( 1, 0, .AHEAD. ) ;
#240 = SHAPE_DEFINITION_REPRESENTATION ( #226, #253 ) ;
#241 = ORIENTED_EDGE ( 'NONE', *, *, #40, .F. ) ;
#242 = COORDINATED_UNIVERSAL_TIME_OFFSET ( 1, 0, .AHEAD. ) ;
#243 = CC_DESIGN_PERSON_AND_ORGANIZATION_ASSIGNMENT ( #186, #79, ( #60 ) ) ;
#244 = AXIS2_PLACEMENT_3D ( 'NONE', #57, #131, #54 ) ;
#245 = EDGE_LOOP ( 'NONE', ( #89, #111, #33, #82 ) ) ;
#246 = PERSON_AND_ORGANIZATION ( #66, #237 ) ;
#247 = ORIENTED_EDGE ( 'NONE', *, *, #252, .T. ) ;
#248 = DIRECTION ( 'NONE',  ( -0.000000000000000000, -0.000000000000000000, -1.000000000000000000 ) ) ;
#249 = DIRECTION ( 'NONE',  ( 0.000000000000000000, 0.000000000000000000, 1.000000000000000000 ) ) ;
#250 = DIRECTION ( 'NONE',  ( 1.000000000000000000, 0.000000000000000000, -0.000000000000000000 ) ) ;
#251 = DIRECTION ( 'NONE',  ( 0.000000000000000000, 0.000000000000000000, 1.000000000000000000 ) ) ;
#252 = EDGE_CURVE ( 'NONE', #223, #16, #27, .T. ) ;
#253 = ADVANCED_BREP_SHAPE_REPRESENTATION ( '1c47', ( #21, #236 ), #200 ) ;
#254 = ADVANCED_FACE ( 'NONE', ( #138 ), #225, .F. ) ;
#255 = AXIS2_PLACEMENT_3D ( 'NONE', #220, #42, #26 ) ;
ENDSEC;
END-ISO-10303-21;
