ISO-10303-21;
HEADER;
FILE_DESCRIPTION (( 'STEP AP203' ),
    '1' );
FILE_NAME ('7900.STEP',
    '2022-07-07T17:56:17',
    ( '' ),
    ( '' ),
    'SwSTEP 2.0',
    'SolidWorks 2019',
    '' );
FILE_SCHEMA (( 'CONFIG_CONTROL_DESIGN' ));
ENDSEC;

DATA;
#1 = APPROVAL_STATUS ( 'not_yet_approved' ) ;
#2 = EDGE_LOOP ( 'NONE', ( #240, #139, #124, #182 ) ) ;
#3 = PERSON_AND_ORGANIZATION_ROLE ( 'creator' ) ;
#4 = CARTESIAN_POINT ( 'NONE',  ( 1.500000000000000222, 1.836970198721030181E-16, 3.000000000000000000 ) ) ;
#5 = COORDINATED_UNIVERSAL_TIME_OFFSET ( 1, 0, .AHEAD. ) ;
#6 = FACE_OUTER_BOUND ( 'NONE', #143, .T. ) ;
#7 = AXIS2_PLACEMENT_3D ( 'NONE', #148, #31, #186 ) ;
#8 = ORIENTED_EDGE ( 'NONE', *, *, #239, .F. ) ;
#9 = AXIS2_PLACEMENT_3D ( 'NONE', #218, #238, #122 ) ;
#10 = CC_DESIGN_DATE_AND_TIME_ASSIGNMENT ( #142, #107, ( #228 ) ) ;
#11 = LOCAL_TIME ( 19, 56, 17.00000000000000000, #18 ) ;
#12 = CARTESIAN_POINT ( 'NONE',  ( 0.000000000000000000, 0.000000000000000000, 253.0000000000000000 ) ) ;
#13 = CYLINDRICAL_SURFACE ( 'NONE', #211, 1.500000000000000222 ) ;
#14 = LOCAL_TIME ( 19, 56, 17.00000000000000000, #101 ) ;
#15 = PERSON_AND_ORGANIZATION_ROLE ( 'design_owner' ) ;
#16 = DIRECTION ( 'NONE',  ( 0.000000000000000000, 0.000000000000000000, 1.000000000000000000 ) ) ;
#17 = DIRECTION ( 'NONE',  ( 0.000000000000000000, 0.000000000000000000, 1.000000000000000000 ) ) ;
#18 = COORDINATED_UNIVERSAL_TIME_OFFSET ( 1, 0, .AHEAD. ) ;
#19 =( NAMED_UNIT ( * ) SI_UNIT ( $, .STERADIAN. ) SOLID_ANGLE_UNIT ( ) );
#20 =( LENGTH_UNIT ( ) NAMED_UNIT ( * ) SI_UNIT ( .MILLI., .METRE. ) );
#21 = DATE_AND_TIME ( #180, #248 ) ;
#22 = CARTESIAN_POINT ( 'NONE',  ( 0.000000000000000000, 0.000000000000000000, 253.0000000000000000 ) ) ;
#23 = CARTESIAN_POINT ( 'NONE',  ( -3.000000000000000444, 0.000000000000000000, 3.000000000000000000 ) ) ;
#24 = APPROVAL_DATE_TIME ( #217, #144 ) ;
#25 = VERTEX_POINT ( 'NONE', #164 ) ;
#26 = PERSON_AND_ORGANIZATION_ROLE ( 'classification_officer' ) ;
#27 = PRODUCT_DEFINITION_FORMATION_WITH_SPECIFIED_SOURCE ( 'LIBOVOLNÝ', '', #146, .NOT_KNOWN. ) ;
#28 = EDGE_CURVE ( 'NONE', #85, #109, #86, .T. ) ;
#29 = DIRECTION ( 'NONE',  ( 1.000000000000000000, 0.000000000000000000, 0.000000000000000000 ) ) ;
#30 = DESIGN_CONTEXT ( 'detailed design', #55, 'design' ) ;
#31 = DIRECTION ( 'NONE',  ( 0.000000000000000000, 0.000000000000000000, 1.000000000000000000 ) ) ;
#32 = ADVANCED_BREP_SHAPE_REPRESENTATION ( '7900', ( #63, #245 ), #80 ) ;
#33 = CYLINDRICAL_SURFACE ( 'NONE', #40, 3.000000000000000444 ) ;
#34 = MECHANICAL_CONTEXT ( 'NONE', #64, 'mechanical' ) ;
#35 = LINE ( 'NONE', #116, #75 ) ;
#36 = DIRECTION ( 'NONE',  ( 0.000000000000000000, 0.000000000000000000, 1.000000000000000000 ) ) ;
#37 = APPLICATION_PROTOCOL_DEFINITION ( 'international standard', 'config_control_design', 1994, #55 ) ;
#38 = APPROVAL_PERSON_ORGANIZATION ( #140, #112, #43 ) ;
#39 = EDGE_LOOP ( 'NONE', ( #198, #59 ) ) ;
#40 = AXIS2_PLACEMENT_3D ( 'NONE', #153, #130, #74 ) ;
#41 = DATE_TIME_ROLE ( 'creation_date' ) ;
#42 = DIRECTION ( 'NONE',  ( 1.000000000000000000, 0.000000000000000000, -0.000000000000000000 ) ) ;
#43 = APPROVAL_ROLE ( '' ) ;
#44 = VERTEX_POINT ( 'NONE', #23 ) ;
#45 = VECTOR ( 'NONE', #169, 1000.000000000000000 ) ;
#46 = EDGE_CURVE ( 'NONE', #109, #85, #70, .T. ) ;
#47 = DIRECTION ( 'NONE',  ( 0.000000000000000000, 0.000000000000000000, 1.000000000000000000 ) ) ;
#48 = CC_DESIGN_PERSON_AND_ORGANIZATION_ASSIGNMENT ( #188, #15, ( #146 ) ) ;
#49 = CARTESIAN_POINT ( 'NONE',  ( 0.000000000000000000, 0.000000000000000000, 3.000000000000000000 ) ) ;
#50 = LINE ( 'NONE', #214, #111 ) ;
#51 = CLOSED_SHELL ( 'NONE', ( #69, #136, #189, #249, #207, #93, #66 ) ) ;
#52 = CC_DESIGN_PERSON_AND_ORGANIZATION_ASSIGNMENT ( #224, #26, ( #228 ) ) ;
#53 = PLANE ( 'NONE',  #206 ) ;
#54 = DIRECTION ( 'NONE',  ( -1.000000000000000000, 0.000000000000000000, 0.000000000000000000 ) ) ;
#55 = APPLICATION_CONTEXT ( 'configuration controlled 3d designs of mechanical parts and assemblies' ) ;
#56 = CARTESIAN_POINT ( 'NONE',  ( 0.000000000000000000, 0.000000000000000000, 3.000000000000000000 ) ) ;
#57 = FACE_OUTER_BOUND ( 'NONE', #108, .T. ) ;
#58 = COORDINATED_UNIVERSAL_TIME_OFFSET ( 1, 0, .AHEAD. ) ;
#59 = ORIENTED_EDGE ( 'NONE', *, *, #133, .F. ) ;
#60 = PERSON_AND_ORGANIZATION ( #67, #199 ) ;
#61 = VERTEX_POINT ( 'NONE', #4 ) ;
#62 = CARTESIAN_POINT ( 'NONE',  ( 0.000000000000000000, 0.000000000000000000, 253.0000000000000000 ) ) ;
#63 = MANIFOLD_SOLID_BREP ( 'Pøidat vysunutím3', #51 ) ;
#64 = APPLICATION_CONTEXT ( 'configuration controlled 3d designs of mechanical parts and assemblies' ) ;
#65 = ORIENTED_EDGE ( 'NONE', *, *, #28, .T. ) ;
#66 = ADVANCED_FACE ( 'NONE', ( #159 ), #241, .T. ) ;
#67 = PERSON ( 'NEURÈENÝ', 'NEURÈENÝ', 'NEURÈENÝ', ('NEURÈENÝ'), ('NEURÈENÝ'), ('NEURÈENÝ') ) ;
#68 = AXIS2_PLACEMENT_3D ( 'NONE', #253, #187, #215 ) ;
#69 = ADVANCED_FACE ( 'NONE', ( #6 ), #114, .T. ) ;
#70 = CIRCLE ( 'NONE', #205, 1.500000000000000222 ) ;
#71 = CARTESIAN_POINT ( 'NONE',  ( 0.000000000000000000, 0.000000000000000000, 3.000000000000000000 ) ) ;
#72 = DIRECTION ( 'NONE',  ( -0.000000000000000000, -0.000000000000000000, -1.000000000000000000 ) ) ;
#73 = CARTESIAN_POINT ( 'NONE',  ( 0.000000000000000000, 0.000000000000000000, 0.000000000000000000 ) ) ;
#74 = DIRECTION ( 'NONE',  ( -1.000000000000000000, 0.000000000000000000, 0.000000000000000000 ) ) ;
#75 = VECTOR ( 'NONE', #72, 1000.000000000000000 ) ;
#76 = DIRECTION ( 'NONE',  ( 1.000000000000000000, 0.000000000000000000, 0.000000000000000000 ) ) ;
#77 = CARTESIAN_POINT ( 'NONE',  ( 3.000000000000000444, 3.673940397442060361E-16, 0.000000000000000000 ) ) ;
#78 =( NAMED_UNIT ( * ) PLANE_ANGLE_UNIT ( ) SI_UNIT ( $, .RADIAN. ) );
#79 = CIRCLE ( 'NONE', #103, 3.000000000000000444 ) ;
#80 =( GEOMETRIC_REPRESENTATION_CONTEXT ( 3 ) GLOBAL_UNCERTAINTY_ASSIGNED_CONTEXT ( ( #145 ) ) GLOBAL_UNIT_ASSIGNED_CONTEXT ( ( #20, #78, #19 ) ) REPRESENTATION_CONTEXT ( 'NONE', 'WORKASPACE' ) );
#81 = ORIENTED_EDGE ( 'NONE', *, *, #239, .T. ) ;
#82 = PERSON_AND_ORGANIZATION_ROLE ( 'creator' ) ;
#83 = ORIENTED_EDGE ( 'NONE', *, *, #168, .T. ) ;
#84 = PERSON_AND_ORGANIZATION ( #67, #199 ) ;
#85 = VERTEX_POINT ( 'NONE', #250 ) ;
#86 = CIRCLE ( 'NONE', #9, 1.500000000000000222 ) ;
#87 = AXIS2_PLACEMENT_3D ( 'NONE', #229, #128, #208 ) ;
#88 = ORIENTED_EDGE ( 'NONE', *, *, #183, .F. ) ;
#89 = EDGE_CURVE ( 'NONE', #119, #225, #233, .T. ) ;
#90 = ORIENTED_EDGE ( 'NONE', *, *, #46, .F. ) ;
#91 = CIRCLE ( 'NONE', #98, 3.000000000000000444 ) ;
#92 = CC_DESIGN_SECURITY_CLASSIFICATION ( #228, ( #27 ) ) ;
#93 = ADVANCED_FACE ( 'NONE', ( #184 ), #13, .T. ) ;
#94 = DIRECTION ( 'NONE',  ( 1.000000000000000000, 0.000000000000000000, 0.000000000000000000 ) ) ;
#95 = CARTESIAN_POINT ( 'NONE',  ( 3.000000000000000444, 3.673940397442060361E-16, 3.000000000000000000 ) ) ;
#96 = APPROVAL_STATUS ( 'not_yet_approved' ) ;
#97 = CARTESIAN_POINT ( 'NONE',  ( 1.500000000000000222, 1.836970198721030181E-16, 253.0000000000000000 ) ) ;
#98 = AXIS2_PLACEMENT_3D ( 'NONE', #166, #36, #29 ) ;
#99 = CALENDAR_DATE ( 2022, 7, 7 ) ;
#100 = CIRCLE ( 'NONE', #242, 1.500000000000000222 ) ;
#101 = COORDINATED_UNIVERSAL_TIME_OFFSET ( 1, 0, .AHEAD. ) ;
#102 = DIRECTION ( 'NONE',  ( 1.000000000000000000, 0.000000000000000000, -0.000000000000000000 ) ) ;
#103 = AXIS2_PLACEMENT_3D ( 'NONE', #251, #171, #94 ) ;
#104 = AXIS2_PLACEMENT_3D ( 'NONE', #117, #192, #156 ) ;
#105 = DIRECTION ( 'NONE',  ( 1.000000000000000000, 0.000000000000000000, 0.000000000000000000 ) ) ;
#106 = DIRECTION ( 'NONE',  ( 0.000000000000000000, 0.000000000000000000, 1.000000000000000000 ) ) ;
#107 = DATE_TIME_ROLE ( 'classification_date' ) ;
#108 = EDGE_LOOP ( 'NONE', ( #244, #175 ) ) ;
#109 = VERTEX_POINT ( 'NONE', #97 ) ;
#110 = ORIENTED_EDGE ( 'NONE', *, *, #115, .T. ) ;
#111 = VECTOR ( 'NONE', #149, 1000.000000000000000 ) ;
#112 = APPROVAL ( #196, 'NEURÈENÝ' ) ;
#113 = CARTESIAN_POINT ( 'NONE',  ( -3.000000000000000444, 0.000000000000000000, 0.000000000000000000 ) ) ;
#114 = CYLINDRICAL_SURFACE ( 'NONE', #68, 1.500000000000000222 ) ;
#115 = EDGE_CURVE ( 'NONE', #204, #225, #79, .T. ) ;
#116 = CARTESIAN_POINT ( 'NONE',  ( -1.500000000000000222, 0.000000000000000000, 253.0000000000000000 ) ) ;
#117 = CARTESIAN_POINT ( 'NONE',  ( 0.000000000000000000, 0.000000000000000000, 3.000000000000000000 ) ) ;
#118 = EDGE_CURVE ( 'NONE', #44, #119, #91, .T. ) ;
#119 = VERTEX_POINT ( 'NONE', #95 ) ;
#120 = LOCAL_TIME ( 19, 56, 17.00000000000000000, #178 ) ;
#121 = PERSON_AND_ORGANIZATION_ROLE ( 'design_supplier' ) ;
#122 = DIRECTION ( 'NONE',  ( 1.000000000000000000, 0.000000000000000000, 0.000000000000000000 ) ) ;
#123 = ORIENTED_EDGE ( 'NONE', *, *, #89, .T. ) ;
#124 = ORIENTED_EDGE ( 'NONE', *, *, #183, .T. ) ;
#125 = APPROVAL_PERSON_ORGANIZATION ( #154, #177, #170 ) ;
#126 = CC_DESIGN_PERSON_AND_ORGANIZATION_ASSIGNMENT ( #203, #82, ( #27 ) ) ;
#127 = CIRCLE ( 'NONE', #104, 1.500000000000000222 ) ;
#128 = DIRECTION ( 'NONE',  ( -0.000000000000000000, -0.000000000000000000, -1.000000000000000000 ) ) ;
#129 = DIRECTION ( 'NONE',  ( 1.000000000000000000, 0.000000000000000000, 0.000000000000000000 ) ) ;
#130 = DIRECTION ( 'NONE',  ( -0.000000000000000000, -0.000000000000000000, -1.000000000000000000 ) ) ;
#131 = CYLINDRICAL_SURFACE ( 'NONE', #87, 3.000000000000000444 ) ;
#132 = CARTESIAN_POINT ( 'NONE',  ( -3.000000000000000444, 0.000000000000000000, 3.000000000000000000 ) ) ;
#133 = EDGE_CURVE ( 'NONE', #225, #204, #197, .T. ) ;
#134 = CC_DESIGN_APPROVAL ( #177, ( #227 ) ) ;
#135 = CARTESIAN_POINT ( 'NONE',  ( 0.000000000000000000, 0.000000000000000000, 0.000000000000000000 ) ) ;
#136 = ADVANCED_FACE ( 'NONE', ( #150 ), #33, .T. ) ;
#137 = EDGE_LOOP ( 'NONE', ( #202, #163, #81, #110 ) ) ;
#138 = DATE_AND_TIME ( #219, #120 ) ;
#139 = ORIENTED_EDGE ( 'NONE', *, *, #28, .F. ) ;
#140 = PERSON_AND_ORGANIZATION ( #67, #199 ) ;
#141 = DIRECTION ( 'NONE',  ( 0.000000000000000000, 0.000000000000000000, 1.000000000000000000 ) ) ;
#142 = DATE_AND_TIME ( #99, #147 ) ;
#143 = EDGE_LOOP ( 'NONE', ( #90, #83, #201, #88 ) ) ;
#144 = APPROVAL ( #1, 'NEURÈENÝ' ) ;
#145 = UNCERTAINTY_MEASURE_WITH_UNIT (LENGTH_MEASURE( 1.000000000000000082E-05 ), #20, 'distance_accuracy_value', 'NONE');
#146 = PRODUCT ( '7900', '7900', '', ( #34 ) ) ;
#147 = LOCAL_TIME ( 19, 56, 17.00000000000000000, #5 ) ;
#148 = CARTESIAN_POINT ( 'NONE',  ( 0.000000000000000000, 0.000000000000000000, 0.000000000000000000 ) ) ;
#149 = DIRECTION ( 'NONE',  ( -0.000000000000000000, -0.000000000000000000, -1.000000000000000000 ) ) ;
#150 = FACE_OUTER_BOUND ( 'NONE', #243, .T. ) ;
#151 = CIRCLE ( 'NONE', #220, 3.000000000000000444 ) ;
#152 = DATE_AND_TIME ( #252, #14 ) ;
#153 = CARTESIAN_POINT ( 'NONE',  ( 0.000000000000000000, 0.000000000000000000, 3.000000000000000000 ) ) ;
#154 = PERSON_AND_ORGANIZATION ( #67, #199 ) ;
#155 = DIRECTION ( 'NONE',  ( 0.000000000000000000, 0.000000000000000000, 1.000000000000000000 ) ) ;
#156 = DIRECTION ( 'NONE',  ( 1.000000000000000000, 0.000000000000000000, 0.000000000000000000 ) ) ;
#157 = ORIENTED_EDGE ( 'NONE', *, *, #212, .F. ) ;
#158 = ORIENTED_EDGE ( 'NONE', *, *, #46, .T. ) ;
#159 = FACE_OUTER_BOUND ( 'NONE', #223, .T. ) ;
#160 = CC_DESIGN_PERSON_AND_ORGANIZATION_ASSIGNMENT ( #84, #121, ( #27 ) ) ;
#161 = APPROVAL_PERSON_ORGANIZATION ( #162, #144, #191 ) ;
#162 = PERSON_AND_ORGANIZATION ( #67, #199 ) ;
#163 = ORIENTED_EDGE ( 'NONE', *, *, #118, .F. ) ;
#164 = CARTESIAN_POINT ( 'NONE',  ( -1.500000000000000222, 0.000000000000000000, 3.000000000000000000 ) ) ;
#165 = EDGE_CURVE ( 'NONE', #119, #44, #151, .T. ) ;
#166 = CARTESIAN_POINT ( 'NONE',  ( 0.000000000000000000, 0.000000000000000000, 3.000000000000000000 ) ) ;
#167 = PRODUCT_DEFINITION_SHAPE ( 'NONE', 'NONE',  #227 ) ;
#168 = EDGE_CURVE ( 'NONE', #109, #61, #50, .T. ) ;
#169 = DIRECTION ( 'NONE',  ( -0.000000000000000000, -0.000000000000000000, -1.000000000000000000 ) ) ;
#170 = APPROVAL_ROLE ( '' ) ;
#171 = DIRECTION ( 'NONE',  ( 0.000000000000000000, 0.000000000000000000, 1.000000000000000000 ) ) ;
#172 = APPROVAL_DATE_TIME ( #21, #112 ) ;
#173 = DIRECTION ( 'NONE',  ( -0.000000000000000000, -0.000000000000000000, -1.000000000000000000 ) ) ;
#174 = AXIS2_PLACEMENT_3D ( 'NONE', #62, #141, #42 ) ;
#175 = ORIENTED_EDGE ( 'NONE', *, *, #165, .T. ) ;
#176 = ORIENTED_EDGE ( 'NONE', *, *, #133, .T. ) ;
#177 = APPROVAL ( #96, 'NEURÈENÝ' ) ;
#178 = COORDINATED_UNIVERSAL_TIME_OFFSET ( 1, 0, .AHEAD. ) ;
#179 = ORIENTED_EDGE ( 'NONE', *, *, #165, .F. ) ;
#180 = CALENDAR_DATE ( 2022, 7, 7 ) ;
#181 = ORIENTED_EDGE ( 'NONE', *, *, #246, .F. ) ;
#182 = ORIENTED_EDGE ( 'NONE', *, *, #246, .T. ) ;
#183 = EDGE_CURVE ( 'NONE', #85, #25, #35, .T. ) ;
#184 = FACE_OUTER_BOUND ( 'NONE', #2, .T. ) ;
#185 = PRODUCT_RELATED_PRODUCT_CATEGORY ( 'detail', '', ( #146 ) ) ;
#186 = DIRECTION ( 'NONE',  ( 1.000000000000000000, 0.000000000000000000, -0.000000000000000000 ) ) ;
#187 = DIRECTION ( 'NONE',  ( -0.000000000000000000, -0.000000000000000000, -1.000000000000000000 ) ) ;
#188 = PERSON_AND_ORGANIZATION ( #67, #199 ) ;
#189 = ADVANCED_FACE ( 'NONE', ( #190 ), #131, .T. ) ;
#190 = FACE_OUTER_BOUND ( 'NONE', #137, .T. ) ;
#191 = APPROVAL_ROLE ( '' ) ;
#192 = DIRECTION ( 'NONE',  ( 0.000000000000000000, 0.000000000000000000, 1.000000000000000000 ) ) ;
#193 = CC_DESIGN_APPROVAL ( #144, ( #27 ) ) ;
#194 = CC_DESIGN_PERSON_AND_ORGANIZATION_ASSIGNMENT ( #60, #3, ( #227 ) ) ;
#195 = APPLICATION_PROTOCOL_DEFINITION ( 'international standard', 'config_control_design', 1994, #64 ) ;
#196 = APPROVAL_STATUS ( 'not_yet_approved' ) ;
#197 = CIRCLE ( 'NONE', #232, 3.000000000000000444 ) ;
#198 = ORIENTED_EDGE ( 'NONE', *, *, #115, .F. ) ;
#199 = ORGANIZATION ( 'NEURÈENÝ', 'NEURÈENÝ', '' ) ;
#200 = SECURITY_CLASSIFICATION_LEVEL ( 'unclassified' ) ;
#201 = ORIENTED_EDGE ( 'NONE', *, *, #212, .T. ) ;
#202 = ORIENTED_EDGE ( 'NONE', *, *, #89, .F. ) ;
#203 = PERSON_AND_ORGANIZATION ( #67, #199 ) ;
#204 = VERTEX_POINT ( 'NONE', #113 ) ;
#205 = AXIS2_PLACEMENT_3D ( 'NONE', #22, #106, #105 ) ;
#206 = AXIS2_PLACEMENT_3D ( 'NONE', #56, #155, #102 ) ;
#207 = ADVANCED_FACE ( 'NONE', ( #209 ), #230, .F. ) ;
#208 = DIRECTION ( 'NONE',  ( -1.000000000000000000, 0.000000000000000000, 0.000000000000000000 ) ) ;
#209 = FACE_OUTER_BOUND ( 'NONE', #39, .T. ) ;
#210 = DIRECTION ( 'NONE',  ( -0.000000000000000000, -0.000000000000000000, -1.000000000000000000 ) ) ;
#211 = AXIS2_PLACEMENT_3D ( 'NONE', #12, #210, #54 ) ;
#212 = EDGE_CURVE ( 'NONE', #61, #25, #100, .T. ) ;
#213 = VECTOR ( 'NONE', #173, 1000.000000000000000 ) ;
#214 = CARTESIAN_POINT ( 'NONE',  ( 1.500000000000000222, 1.836970198721030181E-16, 253.0000000000000000 ) ) ;
#215 = DIRECTION ( 'NONE',  ( -1.000000000000000000, 0.000000000000000000, 0.000000000000000000 ) ) ;
#216 = DIRECTION ( 'NONE',  ( 0.000000000000000000, 0.000000000000000000, 1.000000000000000000 ) ) ;
#217 = DATE_AND_TIME ( #237, #11 ) ;
#218 = CARTESIAN_POINT ( 'NONE',  ( 0.000000000000000000, 0.000000000000000000, 253.0000000000000000 ) ) ;
#219 = CALENDAR_DATE ( 2022, 7, 7 ) ;
#220 = AXIS2_PLACEMENT_3D ( 'NONE', #71, #16, #231 ) ;
#221 = EDGE_LOOP ( 'NONE', ( #181, #157 ) ) ;
#222 = SHAPE_DEFINITION_REPRESENTATION ( #167, #32 ) ;
#223 = EDGE_LOOP ( 'NONE', ( #65, #158 ) ) ;
#224 = PERSON_AND_ORGANIZATION ( #67, #199 ) ;
#225 = VERTEX_POINT ( 'NONE', #77 ) ;
#226 = CC_DESIGN_DATE_AND_TIME_ASSIGNMENT ( #138, #41, ( #227 ) ) ;
#227 = PRODUCT_DEFINITION ( 'NEZNÁMÝ', '', #27, #30 ) ;
#228 = SECURITY_CLASSIFICATION ( '', '', #200 ) ;
#229 = CARTESIAN_POINT ( 'NONE',  ( 0.000000000000000000, 0.000000000000000000, 3.000000000000000000 ) ) ;
#230 = PLANE ( 'NONE',  #7 ) ;
#231 = DIRECTION ( 'NONE',  ( 1.000000000000000000, 0.000000000000000000, 0.000000000000000000 ) ) ;
#232 = AXIS2_PLACEMENT_3D ( 'NONE', #73, #47, #129 ) ;
#233 = LINE ( 'NONE', #247, #45 ) ;
#234 = APPROVAL_DATE_TIME ( #152, #177 ) ;
#235 = LINE ( 'NONE', #132, #213 ) ;
#236 = CC_DESIGN_APPROVAL ( #112, ( #228 ) ) ;
#237 = CALENDAR_DATE ( 2022, 7, 7 ) ;
#238 = DIRECTION ( 'NONE',  ( 0.000000000000000000, 0.000000000000000000, 1.000000000000000000 ) ) ;
#239 = EDGE_CURVE ( 'NONE', #44, #204, #235, .T. ) ;
#240 = ORIENTED_EDGE ( 'NONE', *, *, #168, .F. ) ;
#241 = PLANE ( 'NONE',  #174 ) ;
#242 = AXIS2_PLACEMENT_3D ( 'NONE', #49, #17, #255 ) ;
#243 = EDGE_LOOP ( 'NONE', ( #179, #123, #176, #8 ) ) ;
#244 = ORIENTED_EDGE ( 'NONE', *, *, #118, .T. ) ;
#245 = AXIS2_PLACEMENT_3D ( 'NONE', #135, #216, #76 ) ;
#246 = EDGE_CURVE ( 'NONE', #25, #61, #127, .T. ) ;
#247 = CARTESIAN_POINT ( 'NONE',  ( 3.000000000000000444, 3.673940397442060361E-16, 3.000000000000000000 ) ) ;
#248 = LOCAL_TIME ( 19, 56, 17.00000000000000000, #58 ) ;
#249 = ADVANCED_FACE ( 'NONE', ( #254, #57 ), #53, .T. ) ;
#250 = CARTESIAN_POINT ( 'NONE',  ( -1.500000000000000222, 0.000000000000000000, 253.0000000000000000 ) ) ;
#251 = CARTESIAN_POINT ( 'NONE',  ( 0.000000000000000000, 0.000000000000000000, 0.000000000000000000 ) ) ;
#252 = CALENDAR_DATE ( 2022, 7, 7 ) ;
#253 = CARTESIAN_POINT ( 'NONE',  ( 0.000000000000000000, 0.000000000000000000, 253.0000000000000000 ) ) ;
#254 = FACE_BOUND ( 'NONE', #221, .T. ) ;
#255 = DIRECTION ( 'NONE',  ( 1.000000000000000000, 0.000000000000000000, 0.000000000000000000 ) ) ;
ENDSEC;
END-ISO-10303-21;
