ISO-10303-21;
HEADER;
FILE_DESCRIPTION (( 'STEP AP203' ),
    '1' );
FILE_NAME ('5895.STEP',
    '2023-02-13T16:07:18',
    ( '' ),
    ( '' ),
    'SwSTEP 2.0',
    'SolidWorks 2019',
    '' );
FILE_SCHEMA (( 'CONFIG_CONTROL_DESIGN' ));
ENDSEC;

DATA;
#1 = CARTESIAN_POINT ( 'NONE',  ( -4.000000000000000000, 0.000000000000000000, 0.000000000000000000 ) ) ;
#2 = DATE_TIME_ROLE ( 'creation_date' ) ;
#3 = AXIS2_PLACEMENT_3D ( 'NONE', #94, #179, #49 ) ;
#4 = PERSON_AND_ORGANIZATION ( #118, #89 ) ;
#5 = EDGE_CURVE ( 'NONE', #173, #31, #61, .T. ) ;
#6 = EDGE_LOOP ( 'NONE', ( #33, #67 ) ) ;
#7 = EDGE_LOOP ( 'NONE', ( #133, #137 ) ) ;
#8 = APPROVAL ( #155, 'NEURÈENÝ' ) ;
#9 = FACE_OUTER_BOUND ( 'NONE', #6, .T. ) ;
#10 = CARTESIAN_POINT ( 'NONE',  ( 0.000000000000000000, 0.000000000000000000, 100.0000000000000000 ) ) ;
#11 = ORIENTED_EDGE ( 'NONE', *, *, #184, .T. ) ;
#12 = DIRECTION ( 'NONE',  ( 1.000000000000000000, 0.000000000000000000, -0.000000000000000000 ) ) ;
#13 = CARTESIAN_POINT ( 'NONE',  ( 2.250000000000000000, 2.755455298081543792E-16, 3.000000000000000000 ) ) ;
#14 = CC_DESIGN_APPROVAL ( #136, ( #231 ) ) ;
#15 = DIRECTION ( 'NONE',  ( 0.000000000000000000, 0.000000000000000000, 1.000000000000000000 ) ) ;
#16 = VECTOR ( 'NONE', #83, 1000.000000000000000 ) ;
#17 = CYLINDRICAL_SURFACE ( 'NONE', #70, 4.000000000000000000 ) ;
#18 = EDGE_CURVE ( 'NONE', #210, #129, #80, .T. ) ;
#19 = CYLINDRICAL_SURFACE ( 'NONE', #132, 2.250000000000000000 ) ;
#20 = COORDINATED_UNIVERSAL_TIME_OFFSET ( 1, 0, .AHEAD. ) ;
#21 = APPLICATION_CONTEXT ( 'configuration controlled 3d designs of mechanical parts and assemblies' ) ;
#22 = LOCAL_TIME ( 17, 7, 18.00000000000000000, #20 ) ;
#23 = APPROVAL_DATE_TIME ( #101, #136 ) ;
#24 = EDGE_LOOP ( 'NONE', ( #174, #213 ) ) ;
#25 = VERTEX_POINT ( 'NONE', #13 ) ;
#26 = CIRCLE ( 'NONE', #117, 2.250000000000000000 ) ;
#27 = VECTOR ( 'NONE', #51, 1000.000000000000000 ) ;
#28 = ORIENTED_EDGE ( 'NONE', *, *, #131, .T. ) ;
#29 = CARTESIAN_POINT ( 'NONE',  ( 0.000000000000000000, 0.000000000000000000, 100.0000000000000000 ) ) ;
#30 = CARTESIAN_POINT ( 'NONE',  ( 0.000000000000000000, 0.000000000000000000, 3.000000000000000000 ) ) ;
#31 = VERTEX_POINT ( 'NONE', #71 ) ;
#32 = FACE_OUTER_BOUND ( 'NONE', #107, .T. ) ;
#33 = ORIENTED_EDGE ( 'NONE', *, *, #120, .T. ) ;
#34 = FACE_OUTER_BOUND ( 'NONE', #191, .T. ) ;
#35 = APPLICATION_PROTOCOL_DEFINITION ( 'international standard', 'config_control_design', 1994, #21 ) ;
#36 = CARTESIAN_POINT ( 'NONE',  ( -2.250000000000000000, 0.000000000000000000, 100.0000000000000000 ) ) ;
#37 = EDGE_CURVE ( 'NONE', #129, #210, #172, .T. ) ;
#38 = MECHANICAL_CONTEXT ( 'NONE', #21, 'mechanical' ) ;
#39 = VECTOR ( 'NONE', #73, 1000.000000000000000 ) ;
#40 = CC_DESIGN_DATE_AND_TIME_ASSIGNMENT ( #99, #207, ( #231 ) ) ;
#41 = ORIENTED_EDGE ( 'NONE', *, *, #62, .T. ) ;
#42 = LOCAL_TIME ( 17, 7, 18.00000000000000000, #255 ) ;
#43 = ORIENTED_EDGE ( 'NONE', *, *, #18, .T. ) ;
#44 = COORDINATED_UNIVERSAL_TIME_OFFSET ( 1, 0, .AHEAD. ) ;
#45 = ORIENTED_EDGE ( 'NONE', *, *, #54, .F. ) ;
#46 = CC_DESIGN_SECURITY_CLASSIFICATION ( #231, ( #215 ) ) ;
#47 = CIRCLE ( 'NONE', #3, 4.000000000000000000 ) ;
#48 = APPLICATION_CONTEXT ( 'configuration controlled 3d designs of mechanical parts and assemblies' ) ;
#49 = DIRECTION ( 'NONE',  ( 1.000000000000000000, 0.000000000000000000, 0.000000000000000000 ) ) ;
#50 = FACE_BOUND ( 'NONE', #7, .T. ) ;
#51 = DIRECTION ( 'NONE',  ( -0.000000000000000000, -0.000000000000000000, -1.000000000000000000 ) ) ;
#52 = AXIS2_PLACEMENT_3D ( 'NONE', #57, #180, #142 ) ;
#53 = CYLINDRICAL_SURFACE ( 'NONE', #146, 2.250000000000000000 ) ;
#54 = EDGE_CURVE ( 'NONE', #189, #129, #75, .T. ) ;
#55 = CARTESIAN_POINT ( 'NONE',  ( 0.000000000000000000, 0.000000000000000000, 3.000000000000000000 ) ) ;
#56 = DIRECTION ( 'NONE',  ( -0.000000000000000000, -0.000000000000000000, -1.000000000000000000 ) ) ;
#57 = CARTESIAN_POINT ( 'NONE',  ( 0.000000000000000000, 0.000000000000000000, 3.000000000000000000 ) ) ;
#58 = COORDINATED_UNIVERSAL_TIME_OFFSET ( 1, 0, .AHEAD. ) ;
#59 = CARTESIAN_POINT ( 'NONE',  ( 0.000000000000000000, 0.000000000000000000, 3.000000000000000000 ) ) ;
#60 = DIRECTION ( 'NONE',  ( -1.000000000000000000, 0.000000000000000000, 0.000000000000000000 ) ) ;
#61 = CIRCLE ( 'NONE', #112, 2.250000000000000000 ) ;
#62 = EDGE_CURVE ( 'NONE', #64, #210, #251, .T. ) ;
#63 = APPROVAL_DATE_TIME ( #151, #8 ) ;
#64 = VERTEX_POINT ( 'NONE', #229 ) ;
#65 = CIRCLE ( 'NONE', #52, 2.250000000000000000 ) ;
#66 = APPROVAL_STATUS ( 'not_yet_approved' ) ;
#67 = ORIENTED_EDGE ( 'NONE', *, *, #176, .T. ) ;
#68 = CC_DESIGN_DATE_AND_TIME_ASSIGNMENT ( #209, #2, ( #152 ) ) ;
#69 = APPROVAL_ROLE ( '' ) ;
#70 = AXIS2_PLACEMENT_3D ( 'NONE', #185, #167, #202 ) ;
#71 = CARTESIAN_POINT ( 'NONE',  ( 2.250000000000000000, 2.755455298081543792E-16, 100.0000000000000000 ) ) ;
#72 = DIRECTION ( 'NONE',  ( 0.000000000000000000, 0.000000000000000000, 1.000000000000000000 ) ) ;
#73 = DIRECTION ( 'NONE',  ( -0.000000000000000000, -0.000000000000000000, -1.000000000000000000 ) ) ;
#74 = EDGE_CURVE ( 'NONE', #25, #153, #203, .T. ) ;
#75 = LINE ( 'NONE', #92, #188 ) ;
#76 = CARTESIAN_POINT ( 'NONE',  ( 0.000000000000000000, 0.000000000000000000, 0.000000000000000000 ) ) ;
#77 = PRODUCT ( '5895', '5895', '', ( #38 ) ) ;
#78 = DIRECTION ( 'NONE',  ( 1.000000000000000000, 0.000000000000000000, 0.000000000000000000 ) ) ;
#79 = APPROVAL ( #235, 'NEURÈENÝ' ) ;
#80 = CIRCLE ( 'NONE', #192, 4.000000000000000000 ) ;
#81 = PERSON_AND_ORGANIZATION ( #118, #89 ) ;
#82 = CARTESIAN_POINT ( 'NONE',  ( -2.250000000000000000, 0.000000000000000000, 100.0000000000000000 ) ) ;
#83 = DIRECTION ( 'NONE',  ( -0.000000000000000000, -0.000000000000000000, -1.000000000000000000 ) ) ;
#84 = PERSON_AND_ORGANIZATION_ROLE ( 'classification_officer' ) ;
#85 = EDGE_LOOP ( 'NONE', ( #149, #125 ) ) ;
#86 = LOCAL_TIME ( 17, 7, 18.00000000000000000, #206 ) ;
#87 = CC_DESIGN_PERSON_AND_ORGANIZATION_ASSIGNMENT ( #225, #105, ( #215 ) ) ;
#88 = DIRECTION ( 'NONE',  ( -1.000000000000000000, 0.000000000000000000, 0.000000000000000000 ) ) ;
#89 = ORGANIZATION ( 'NEURÈENÝ', 'NEURÈENÝ', '' ) ;
#90 = DIRECTION ( 'NONE',  ( 1.000000000000000000, 0.000000000000000000, 0.000000000000000000 ) ) ;
#91 = AXIS2_PLACEMENT_3D ( 'NONE', #232, #113, #214 ) ;
#92 = CARTESIAN_POINT ( 'NONE',  ( 4.000000000000000000, 4.898587196589412829E-16, 3.000000000000000000 ) ) ;
#93 = DIRECTION ( 'NONE',  ( 0.000000000000000000, 0.000000000000000000, 1.000000000000000000 ) ) ;
#94 = CARTESIAN_POINT ( 'NONE',  ( 0.000000000000000000, 0.000000000000000000, 3.000000000000000000 ) ) ;
#95 = CARTESIAN_POINT ( 'NONE',  ( 0.000000000000000000, 0.000000000000000000, 100.0000000000000000 ) ) ;
#96 = CLOSED_SHELL ( 'NONE', ( #247, #196, #170, #114, #145, #148, #108 ) ) ;
#97 = PERSON_AND_ORGANIZATION_ROLE ( 'creator' ) ;
#98 = CALENDAR_DATE ( 2023, 13, 2 ) ;
#99 = DATE_AND_TIME ( #190, #86 ) ;
#100 = CC_DESIGN_APPROVAL ( #79, ( #152 ) ) ;
#101 = DATE_AND_TIME ( #128, #239 ) ;
#102 = AXIS2_PLACEMENT_3D ( 'NONE', #76, #93, #193 ) ;
#103 = ORIENTED_EDGE ( 'NONE', *, *, #120, .F. ) ;
#104 = PRODUCT_RELATED_PRODUCT_CATEGORY ( 'detail', '', ( #77 ) ) ;
#105 = PERSON_AND_ORGANIZATION_ROLE ( 'creator' ) ;
#106 = PERSON_AND_ORGANIZATION ( #118, #89 ) ;
#107 = EDGE_LOOP ( 'NONE', ( #45, #103, #41, #43 ) ) ;
#108 = ADVANCED_FACE ( 'NONE', ( #230 ), #175, .T. ) ;
#109 = DESIGN_CONTEXT ( 'detailed design', #48, 'design' ) ;
#110 = DIRECTION ( 'NONE',  ( 1.000000000000000000, 0.000000000000000000, 0.000000000000000000 ) ) ;
#111 = CARTESIAN_POINT ( 'NONE',  ( 4.000000000000000000, 4.898587196589412829E-16, 0.000000000000000000 ) ) ;
#112 = AXIS2_PLACEMENT_3D ( 'NONE', #10, #177, #90 ) ;
#113 = DIRECTION ( 'NONE',  ( 0.000000000000000000, 0.000000000000000000, 1.000000000000000000 ) ) ;
#114 = ADVANCED_FACE ( 'NONE', ( #50, #9 ), #158, .T. ) ;
#115 = DIRECTION ( 'NONE',  ( -0.000000000000000000, -0.000000000000000000, -1.000000000000000000 ) ) ;
#116 = DIRECTION ( 'NONE',  ( 0.000000000000000000, 0.000000000000000000, 1.000000000000000000 ) ) ;
#117 = AXIS2_PLACEMENT_3D ( 'NONE', #141, #204, #181 ) ;
#118 = PERSON ( 'NEURÈENÝ', 'NEURÈENÝ', 'NEURÈENÝ', ('NEURÈENÝ'), ('NEURÈENÝ'), ('NEURÈENÝ') ) ;
#119 = PERSON_AND_ORGANIZATION ( #118, #89 ) ;
#120 = EDGE_CURVE ( 'NONE', #64, #189, #47, .T. ) ;
#121 = APPROVAL_PERSON_ORGANIZATION ( #106, #8, #245 ) ;
#122 = AXIS2_PLACEMENT_3D ( 'NONE', #30, #159, #135 ) ;
#123 = DIRECTION ( 'NONE',  ( 1.000000000000000000, 0.000000000000000000, 0.000000000000000000 ) ) ;
#124 = PERSON_AND_ORGANIZATION ( #118, #89 ) ;
#125 = ORIENTED_EDGE ( 'NONE', *, *, #222, .T. ) ;
#126 = LOCAL_TIME ( 17, 7, 18.00000000000000000, #58 ) ;
#127 = EDGE_LOOP ( 'NONE', ( #211, #252, #11, #169 ) ) ;
#128 = CALENDAR_DATE ( 2023, 13, 2 ) ;
#129 = VERTEX_POINT ( 'NONE', #111 ) ;
#130 = ORIENTED_EDGE ( 'NONE', *, *, #74, .T. ) ;
#131 = EDGE_CURVE ( 'NONE', #31, #25, #194, .T. ) ;
#132 = AXIS2_PLACEMENT_3D ( 'NONE', #95, #56, #60 ) ;
#133 = ORIENTED_EDGE ( 'NONE', *, *, #205, .F. ) ;
#134 = DIRECTION ( 'NONE',  ( 0.000000000000000000, 0.000000000000000000, 1.000000000000000000 ) ) ;
#135 = DIRECTION ( 'NONE',  ( 1.000000000000000000, 0.000000000000000000, -0.000000000000000000 ) ) ;
#136 = APPROVAL ( #66, 'NEURÈENÝ' ) ;
#137 = ORIENTED_EDGE ( 'NONE', *, *, #74, .F. ) ;
#138 = CARTESIAN_POINT ( 'NONE',  ( 0.000000000000000000, 0.000000000000000000, 100.0000000000000000 ) ) ;
#139 = CARTESIAN_POINT ( 'NONE',  ( 0.000000000000000000, 0.000000000000000000, 3.000000000000000000 ) ) ;
#140 = CC_DESIGN_PERSON_AND_ORGANIZATION_ASSIGNMENT ( #81, #198, ( #77 ) ) ;
#141 = CARTESIAN_POINT ( 'NONE',  ( 0.000000000000000000, 0.000000000000000000, 100.0000000000000000 ) ) ;
#142 = DIRECTION ( 'NONE',  ( 1.000000000000000000, 0.000000000000000000, 0.000000000000000000 ) ) ;
#143 = APPROVAL_DATE_TIME ( #221, #79 ) ;
#144 = CARTESIAN_POINT ( 'NONE',  ( 4.000000000000000000, 4.898587196589412829E-16, 3.000000000000000000 ) ) ;
#145 = ADVANCED_FACE ( 'NONE', ( #161 ), #160, .F. ) ;
#146 = AXIS2_PLACEMENT_3D ( 'NONE', #138, #162, #88 ) ;
#147 = PERSON_AND_ORGANIZATION_ROLE ( 'design_supplier' ) ;
#148 = ADVANCED_FACE ( 'NONE', ( #178 ), #53, .T. ) ;
#149 = ORIENTED_EDGE ( 'NONE', *, *, #5, .T. ) ;
#150 = CALENDAR_DATE ( 2023, 13, 2 ) ;
#151 = DATE_AND_TIME ( #150, #22 ) ;
#152 = PRODUCT_DEFINITION ( 'NEZNÁMÝ', '', #215, #109 ) ;
#153 = VERTEX_POINT ( 'NONE', #218 ) ;
#154 = ADVANCED_BREP_SHAPE_REPRESENTATION ( '5895', ( #212, #220 ), #182 ) ;
#155 = APPROVAL_STATUS ( 'not_yet_approved' ) ;
#156 = ORIENTED_EDGE ( 'NONE', *, *, #62, .F. ) ;
#157 = UNCERTAINTY_MEASURE_WITH_UNIT (LENGTH_MEASURE( 1.000000000000000082E-05 ), #240, 'distance_accuracy_value', 'NONE');
#158 = PLANE ( 'NONE',  #122 ) ;
#159 = DIRECTION ( 'NONE',  ( 0.000000000000000000, 0.000000000000000000, 1.000000000000000000 ) ) ;
#160 = PLANE ( 'NONE',  #102 ) ;
#161 = FACE_OUTER_BOUND ( 'NONE', #24, .T. ) ;
#162 = DIRECTION ( 'NONE',  ( -0.000000000000000000, -0.000000000000000000, -1.000000000000000000 ) ) ;
#163 = APPLICATION_PROTOCOL_DEFINITION ( 'international standard', 'config_control_design', 1994, #48 ) ;
#164 =( NAMED_UNIT ( * ) SI_UNIT ( $, .STERADIAN. ) SOLID_ANGLE_UNIT ( ) );
#165 = PERSON_AND_ORGANIZATION ( #118, #89 ) ;
#166 = CARTESIAN_POINT ( 'NONE',  ( 0.000000000000000000, 0.000000000000000000, 0.000000000000000000 ) ) ;
#167 = DIRECTION ( 'NONE',  ( -0.000000000000000000, -0.000000000000000000, -1.000000000000000000 ) ) ;
#168 = APPROVAL_PERSON_ORGANIZATION ( #4, #136, #69 ) ;
#169 = ORIENTED_EDGE ( 'NONE', *, *, #205, .T. ) ;
#170 = ADVANCED_FACE ( 'NONE', ( #32 ), #234, .T. ) ;
#171 = ORIENTED_EDGE ( 'NONE', *, *, #222, .F. ) ;
#172 = CIRCLE ( 'NONE', #91, 4.000000000000000000 ) ;
#173 = VERTEX_POINT ( 'NONE', #82 ) ;
#174 = ORIENTED_EDGE ( 'NONE', *, *, #18, .F. ) ;
#175 = PLANE ( 'NONE',  #233 ) ;
#176 = EDGE_CURVE ( 'NONE', #189, #64, #246, .T. ) ;
#177 = DIRECTION ( 'NONE',  ( 0.000000000000000000, 0.000000000000000000, 1.000000000000000000 ) ) ;
#178 = FACE_OUTER_BOUND ( 'NONE', #127, .T. ) ;
#179 = DIRECTION ( 'NONE',  ( 0.000000000000000000, 0.000000000000000000, 1.000000000000000000 ) ) ;
#180 = DIRECTION ( 'NONE',  ( 0.000000000000000000, 0.000000000000000000, 1.000000000000000000 ) ) ;
#181 = DIRECTION ( 'NONE',  ( 1.000000000000000000, 0.000000000000000000, 0.000000000000000000 ) ) ;
#182 =( GEOMETRIC_REPRESENTATION_CONTEXT ( 3 ) GLOBAL_UNCERTAINTY_ASSIGNED_CONTEXT ( ( #157 ) ) GLOBAL_UNIT_ASSIGNED_CONTEXT ( ( #240, #183, #164 ) ) REPRESENTATION_CONTEXT ( 'NONE', 'WORKASPACE' ) );
#183 =( NAMED_UNIT ( * ) PLANE_ANGLE_UNIT ( ) SI_UNIT ( $, .RADIAN. ) );
#184 = EDGE_CURVE ( 'NONE', #173, #153, #254, .T. ) ;
#185 = CARTESIAN_POINT ( 'NONE',  ( 0.000000000000000000, 0.000000000000000000, 3.000000000000000000 ) ) ;
#186 = DIRECTION ( 'NONE',  ( -1.000000000000000000, 0.000000000000000000, 0.000000000000000000 ) ) ;
#187 = SHAPE_DEFINITION_REPRESENTATION ( #226, #154 ) ;
#188 = VECTOR ( 'NONE', #115, 1000.000000000000000 ) ;
#189 = VERTEX_POINT ( 'NONE', #144 ) ;
#190 = CALENDAR_DATE ( 2023, 13, 2 ) ;
#191 = EDGE_LOOP ( 'NONE', ( #250, #242, #197, #156 ) ) ;
#192 = AXIS2_PLACEMENT_3D ( 'NONE', #228, #116, #216 ) ;
#193 = DIRECTION ( 'NONE',  ( 1.000000000000000000, 0.000000000000000000, -0.000000000000000000 ) ) ;
#194 = LINE ( 'NONE', #253, #39 ) ;
#195 = CARTESIAN_POINT ( 'NONE',  ( -4.000000000000000000, 0.000000000000000000, 3.000000000000000000 ) ) ;
#196 = ADVANCED_FACE ( 'NONE', ( #34 ), #17, .T. ) ;
#197 = ORIENTED_EDGE ( 'NONE', *, *, #37, .T. ) ;
#198 = PERSON_AND_ORGANIZATION_ROLE ( 'design_owner' ) ;
#199 = FACE_OUTER_BOUND ( 'NONE', #248, .T. ) ;
#200 = CC_DESIGN_PERSON_AND_ORGANIZATION_ASSIGNMENT ( #124, #84, ( #231 ) ) ;
#201 = AXIS2_PLACEMENT_3D ( 'NONE', #59, #15, #123 ) ;
#202 = DIRECTION ( 'NONE',  ( -1.000000000000000000, 0.000000000000000000, 0.000000000000000000 ) ) ;
#203 = CIRCLE ( 'NONE', #241, 2.250000000000000000 ) ;
#204 = DIRECTION ( 'NONE',  ( 0.000000000000000000, 0.000000000000000000, 1.000000000000000000 ) ) ;
#205 = EDGE_CURVE ( 'NONE', #153, #25, #65, .T. ) ;
#206 = COORDINATED_UNIVERSAL_TIME_OFFSET ( 1, 0, .AHEAD. ) ;
#207 = DATE_TIME_ROLE ( 'classification_date' ) ;
#208 = AXIS2_PLACEMENT_3D ( 'NONE', #55, #219, #186 ) ;
#209 = DATE_AND_TIME ( #238, #42 ) ;
#210 = VERTEX_POINT ( 'NONE', #1 ) ;
#211 = ORIENTED_EDGE ( 'NONE', *, *, #131, .F. ) ;
#212 = MANIFOLD_SOLID_BREP ( 'Pøidat vysunutím3', #96 ) ;
#213 = ORIENTED_EDGE ( 'NONE', *, *, #37, .F. ) ;
#214 = DIRECTION ( 'NONE',  ( 1.000000000000000000, 0.000000000000000000, 0.000000000000000000 ) ) ;
#215 = PRODUCT_DEFINITION_FORMATION_WITH_SPECIFIED_SOURCE ( 'LIBOVOLNÝ', '', #77, .NOT_KNOWN. ) ;
#216 = DIRECTION ( 'NONE',  ( 1.000000000000000000, 0.000000000000000000, 0.000000000000000000 ) ) ;
#217 = CC_DESIGN_PERSON_AND_ORGANIZATION_ASSIGNMENT ( #227, #147, ( #215 ) ) ;
#218 = CARTESIAN_POINT ( 'NONE',  ( -2.250000000000000000, 0.000000000000000000, 3.000000000000000000 ) ) ;
#219 = DIRECTION ( 'NONE',  ( -0.000000000000000000, -0.000000000000000000, -1.000000000000000000 ) ) ;
#220 = AXIS2_PLACEMENT_3D ( 'NONE', #166, #223, #78 ) ;
#221 = DATE_AND_TIME ( #98, #126 ) ;
#222 = EDGE_CURVE ( 'NONE', #31, #173, #26, .T. ) ;
#223 = DIRECTION ( 'NONE',  ( 0.000000000000000000, 0.000000000000000000, 1.000000000000000000 ) ) ;
#224 = ORIENTED_EDGE ( 'NONE', *, *, #184, .F. ) ;
#225 = PERSON_AND_ORGANIZATION ( #118, #89 ) ;
#226 = PRODUCT_DEFINITION_SHAPE ( 'NONE', 'NONE',  #152 ) ;
#227 = PERSON_AND_ORGANIZATION ( #118, #89 ) ;
#228 = CARTESIAN_POINT ( 'NONE',  ( 0.000000000000000000, 0.000000000000000000, 0.000000000000000000 ) ) ;
#229 = CARTESIAN_POINT ( 'NONE',  ( -4.000000000000000000, 0.000000000000000000, 3.000000000000000000 ) ) ;
#230 = FACE_OUTER_BOUND ( 'NONE', #85, .T. ) ;
#231 = SECURITY_CLASSIFICATION ( '', '', #243 ) ;
#232 = CARTESIAN_POINT ( 'NONE',  ( 0.000000000000000000, 0.000000000000000000, 0.000000000000000000 ) ) ;
#233 = AXIS2_PLACEMENT_3D ( 'NONE', #29, #72, #12 ) ;
#234 = CYLINDRICAL_SURFACE ( 'NONE', #208, 4.000000000000000000 ) ;
#235 = APPROVAL_STATUS ( 'not_yet_approved' ) ;
#236 = APPROVAL_PERSON_ORGANIZATION ( #165, #79, #237 ) ;
#237 = APPROVAL_ROLE ( '' ) ;
#238 = CALENDAR_DATE ( 2023, 13, 2 ) ;
#239 = LOCAL_TIME ( 17, 7, 18.00000000000000000, #44 ) ;
#240 =( LENGTH_UNIT ( ) NAMED_UNIT ( * ) SI_UNIT ( .MILLI., .METRE. ) );
#241 = AXIS2_PLACEMENT_3D ( 'NONE', #139, #134, #110 ) ;
#242 = ORIENTED_EDGE ( 'NONE', *, *, #54, .T. ) ;
#243 = SECURITY_CLASSIFICATION_LEVEL ( 'unclassified' ) ;
#244 = CC_DESIGN_PERSON_AND_ORGANIZATION_ASSIGNMENT ( #119, #97, ( #152 ) ) ;
#245 = APPROVAL_ROLE ( '' ) ;
#246 = CIRCLE ( 'NONE', #201, 4.000000000000000000 ) ;
#247 = ADVANCED_FACE ( 'NONE', ( #199 ), #19, .T. ) ;
#248 = EDGE_LOOP ( 'NONE', ( #171, #28, #130, #224 ) ) ;
#249 = CC_DESIGN_APPROVAL ( #8, ( #215 ) ) ;
#250 = ORIENTED_EDGE ( 'NONE', *, *, #176, .F. ) ;
#251 = LINE ( 'NONE', #195, #27 ) ;
#252 = ORIENTED_EDGE ( 'NONE', *, *, #5, .F. ) ;
#253 = CARTESIAN_POINT ( 'NONE',  ( 2.250000000000000000, 2.755455298081543792E-16, 100.0000000000000000 ) ) ;
#254 = LINE ( 'NONE', #36, #16 ) ;
#255 = COORDINATED_UNIVERSAL_TIME_OFFSET ( 1, 0, .AHEAD. ) ;
ENDSEC;
END-ISO-10303-21;
