ISO-10303-21;
HEADER;
FILE_DESCRIPTION (( 'STEP AP203' ),
    '1' );
FILE_NAME ('258e.STEP',
    '2022-07-07T17:23:28',
    ( '' ),
    ( '' ),
    'SwSTEP 2.0',
    'SolidWorks 2019',
    '' );
FILE_SCHEMA (( 'CONFIG_CONTROL_DESIGN' ));
ENDSEC;

DATA;
#1 = PERSON_AND_ORGANIZATION_ROLE ( 'classification_officer' ) ;
#2 = ORIENTED_EDGE ( 'NONE', *, *, #212, .T. ) ;
#3 = ORIENTED_EDGE ( 'NONE', *, *, #53, .T. ) ;
#4 = ORIENTED_EDGE ( 'NONE', *, *, #139, .F. ) ;
#5 = CIRCLE ( 'NONE', #80, 5.500000000000000000 ) ;
#6 = EDGE_CURVE ( 'NONE', #180, #177, #20, .T. ) ;
#7 = AXIS2_PLACEMENT_3D ( 'NONE', #52, #107, #66 ) ;
#8 = APPROVAL_ROLE ( '' ) ;
#9 = DATE_TIME_ROLE ( 'creation_date' ) ;
#10 = EDGE_CURVE ( 'NONE', #160, #240, #79, .T. ) ;
#11 = DIRECTION ( 'NONE',  ( -0.000000000000000000, -0.000000000000000000, -1.000000000000000000 ) ) ;
#12 = PERSON_AND_ORGANIZATION ( #166, #134 ) ;
#13 = CARTESIAN_POINT ( 'NONE',  ( 0.000000000000000000, 0.000000000000000000, 105.0000000000000142 ) ) ;
#14 = FACE_OUTER_BOUND ( 'NONE', #121, .T. ) ;
#15 = DIRECTION ( 'NONE',  ( 0.000000000000000000, 0.000000000000000000, 1.000000000000000000 ) ) ;
#16 = VECTOR ( 'NONE', #143, 1000.000000000000000 ) ;
#17 = LINE ( 'NONE', #175, #59 ) ;
#18 = AXIS2_PLACEMENT_3D ( 'NONE', #81, #100, #193 ) ;
#19 = VECTOR ( 'NONE', #203, 1000.000000000000000 ) ;
#20 = LINE ( 'NONE', #199, #243 ) ;
#21 = EDGE_CURVE ( 'NONE', #177, #161, #95, .T. ) ;
#22 = EDGE_LOOP ( 'NONE', ( #98, #57, #97, #23 ) ) ;
#23 = ORIENTED_EDGE ( 'NONE', *, *, #21, .T. ) ;
#24 = APPROVAL ( #127, 'NEURÈENÝ' ) ;
#25 = CARTESIAN_POINT ( 'NONE',  ( 0.000000000000000000, 0.000000000000000000, 105.0000000000000142 ) ) ;
#26 = AXIS2_PLACEMENT_3D ( 'NONE', #152, #246, #30 ) ;
#27 =( NAMED_UNIT ( * ) SI_UNIT ( $, .STERADIAN. ) SOLID_ANGLE_UNIT ( ) );
#28 = CARTESIAN_POINT ( 'NONE',  ( 0.000000000000000000, 0.000000000000000000, 5.000000000000000000 ) ) ;
#29 = CALENDAR_DATE ( 2022, 7, 7 ) ;
#30 = DIRECTION ( 'NONE',  ( 1.000000000000000000, 0.000000000000000000, -0.000000000000000000 ) ) ;
#31 = CARTESIAN_POINT ( 'NONE',  ( 0.000000000000000000, 0.000000000000000000, 0.000000000000000000 ) ) ;
#32 = DATE_AND_TIME ( #93, #215 ) ;
#33 = FACE_OUTER_BOUND ( 'NONE', #39, .T. ) ;
#34 = DATE_AND_TIME ( #248, #174 ) ;
#35 = CARTESIAN_POINT ( 'NONE',  ( 0.000000000000000000, 0.000000000000000000, 5.000000000000000000 ) ) ;
#36 = LOCAL_TIME ( 19, 23, 28.00000000000000000, #63 ) ;
#37 = EDGE_LOOP ( 'NONE', ( #223, #96, #99, #2 ) ) ;
#38 = APPLICATION_CONTEXT ( 'configuration controlled 3d designs of mechanical parts and assemblies' ) ;
#39 = EDGE_LOOP ( 'NONE', ( #242, #217 ) ) ;
#40 = EDGE_CURVE ( 'NONE', #240, #120, #17, .T. ) ;
#41 = CIRCLE ( 'NONE', #150, 5.500000000000000000 ) ;
#42 = DIRECTION ( 'NONE',  ( 0.000000000000000000, 0.000000000000000000, 1.000000000000000000 ) ) ;
#43 = CALENDAR_DATE ( 2022, 7, 7 ) ;
#44 = CYLINDRICAL_SURFACE ( 'NONE', #74, 8.000000000000000000 ) ;
#45 = CARTESIAN_POINT ( 'NONE',  ( 0.000000000000000000, 0.000000000000000000, 0.000000000000000000 ) ) ;
#46 = CARTESIAN_POINT ( 'NONE',  ( 8.000000000000000000, 9.797174393178825657E-16, 5.000000000000000000 ) ) ;
#47 = CIRCLE ( 'NONE', #7, 8.000000000000000000 ) ;
#48 =( GEOMETRIC_REPRESENTATION_CONTEXT ( 3 ) GLOBAL_UNCERTAINTY_ASSIGNED_CONTEXT ( ( #111 ) ) GLOBAL_UNIT_ASSIGNED_CONTEXT ( ( #186, #167, #27 ) ) REPRESENTATION_CONTEXT ( 'NONE', 'WORKASPACE' ) );
#49 = FACE_OUTER_BOUND ( 'NONE', #156, .T. ) ;
#50 = CARTESIAN_POINT ( 'NONE',  ( 5.500000000000000000, 6.735557395310442023E-16, 5.000000000000000000 ) ) ;
#51 = APPLICATION_CONTEXT ( 'configuration controlled 3d designs of mechanical parts and assemblies' ) ;
#52 = CARTESIAN_POINT ( 'NONE',  ( 0.000000000000000000, 0.000000000000000000, 0.000000000000000000 ) ) ;
#53 = EDGE_CURVE ( 'NONE', #60, #180, #137, .T. ) ;
#54 = SHAPE_DEFINITION_REPRESENTATION ( #123, #118 ) ;
#55 = PERSON_AND_ORGANIZATION_ROLE ( 'creator' ) ;
#56 = CC_DESIGN_PERSON_AND_ORGANIZATION_ASSIGNMENT ( #205, #185, ( #142 ) ) ;
#57 = ORIENTED_EDGE ( 'NONE', *, *, #72, .F. ) ;
#58 = EDGE_LOOP ( 'NONE', ( #197, #76 ) ) ;
#59 = VECTOR ( 'NONE', #239, 1000.000000000000000 ) ;
#60 = VERTEX_POINT ( 'NONE', #46 ) ;
#61 = ORIENTED_EDGE ( 'NONE', *, *, #10, .F. ) ;
#62 = APPROVAL_ROLE ( '' ) ;
#63 = COORDINATED_UNIVERSAL_TIME_OFFSET ( 1, 0, .AHEAD. ) ;
#64 = AXIS2_PLACEMENT_3D ( 'NONE', #35, #116, #92 ) ;
#65 = LINE ( 'NONE', #184, #16 ) ;
#66 = DIRECTION ( 'NONE',  ( 1.000000000000000000, 0.000000000000000000, 0.000000000000000000 ) ) ;
#67 = PERSON_AND_ORGANIZATION ( #166, #134 ) ;
#68 = DIRECTION ( 'NONE',  ( -1.000000000000000000, 0.000000000000000000, 0.000000000000000000 ) ) ;
#69 = SECURITY_CLASSIFICATION ( '', '', #130 ) ;
#70 = DIRECTION ( 'NONE',  ( 1.000000000000000000, 0.000000000000000000, -0.000000000000000000 ) ) ;
#71 = COORDINATED_UNIVERSAL_TIME_OFFSET ( 1, 0, .AHEAD. ) ;
#72 = EDGE_CURVE ( 'NONE', #180, #60, #163, .T. ) ;
#73 = PLANE ( 'NONE',  #26 ) ;
#74 = AXIS2_PLACEMENT_3D ( 'NONE', #126, #11, #229 ) ;
#75 = ADVANCED_FACE ( 'NONE', ( #187 ), #88, .T. ) ;
#76 = ORIENTED_EDGE ( 'NONE', *, *, #254, .F. ) ;
#77 = DIRECTION ( 'NONE',  ( 0.000000000000000000, 0.000000000000000000, 1.000000000000000000 ) ) ;
#78 = ORIENTED_EDGE ( 'NONE', *, *, #237, .T. ) ;
#79 = CIRCLE ( 'NONE', #209, 5.500000000000000000 ) ;
#80 = AXIS2_PLACEMENT_3D ( 'NONE', #211, #146, #228 ) ;
#81 = CARTESIAN_POINT ( 'NONE',  ( 0.000000000000000000, 0.000000000000000000, 0.000000000000000000 ) ) ;
#82 = PRODUCT_DEFINITION ( 'NEZNÁMÝ', '', #225, #153 ) ;
#83 = CC_DESIGN_APPROVAL ( #169, ( #69 ) ) ;
#84 = APPROVAL_STATUS ( 'not_yet_approved' ) ;
#85 = LINE ( 'NONE', #227, #19 ) ;
#86 = DIRECTION ( 'NONE',  ( 0.000000000000000000, 0.000000000000000000, 1.000000000000000000 ) ) ;
#87 = PERSON_AND_ORGANIZATION_ROLE ( 'creator' ) ;
#88 = CYLINDRICAL_SURFACE ( 'NONE', #231, 5.500000000000000000 ) ;
#89 = FACE_OUTER_BOUND ( 'NONE', #136, .T. ) ;
#90 = APPROVAL_DATE_TIME ( #34, #169 ) ;
#91 = EDGE_CURVE ( 'NONE', #240, #160, #218, .T. ) ;
#92 = DIRECTION ( 'NONE',  ( 1.000000000000000000, 0.000000000000000000, 0.000000000000000000 ) ) ;
#93 = CALENDAR_DATE ( 2022, 7, 7 ) ;
#94 = APPROVAL_ROLE ( '' ) ;
#95 = CIRCLE ( 'NONE', #18, 8.000000000000000000 ) ;
#96 = ORIENTED_EDGE ( 'NONE', *, *, #91, .F. ) ;
#97 = ORIENTED_EDGE ( 'NONE', *, *, #6, .T. ) ;
#98 = ORIENTED_EDGE ( 'NONE', *, *, #249, .F. ) ;
#99 = ORIENTED_EDGE ( 'NONE', *, *, #40, .T. ) ;
#100 = DIRECTION ( 'NONE',  ( 0.000000000000000000, 0.000000000000000000, 1.000000000000000000 ) ) ;
#101 = DATE_AND_TIME ( #43, #36 ) ;
#102 = DIRECTION ( 'NONE',  ( 1.000000000000000000, 0.000000000000000000, 0.000000000000000000 ) ) ;
#103 = CARTESIAN_POINT ( 'NONE',  ( -5.500000000000000000, 0.000000000000000000, 105.0000000000000142 ) ) ;
#104 = CARTESIAN_POINT ( 'NONE',  ( 0.000000000000000000, 0.000000000000000000, 105.0000000000000142 ) ) ;
#105 = APPROVAL_DATE_TIME ( #201, #24 ) ;
#106 = CARTESIAN_POINT ( 'NONE',  ( 5.500000000000000000, 6.735557395310442023E-16, 105.0000000000000142 ) ) ;
#107 = DIRECTION ( 'NONE',  ( 0.000000000000000000, 0.000000000000000000, 1.000000000000000000 ) ) ;
#108 = FACE_OUTER_BOUND ( 'NONE', #113, .T. ) ;
#109 = AXIS2_PLACEMENT_3D ( 'NONE', #28, #230, #68 ) ;
#110 = CC_DESIGN_APPROVAL ( #165, ( #225 ) ) ;
#111 = UNCERTAINTY_MEASURE_WITH_UNIT (LENGTH_MEASURE( 1.000000000000000082E-05 ), #186, 'distance_accuracy_value', 'NONE');
#112 = PERSON_AND_ORGANIZATION ( #166, #134 ) ;
#113 = EDGE_LOOP ( 'NONE', ( #138, #196, #141, #220 ) ) ;
#114 = AXIS2_PLACEMENT_3D ( 'NONE', #210, #148, #173 ) ;
#115 = LOCAL_TIME ( 19, 23, 28.00000000000000000, #145 ) ;
#116 = DIRECTION ( 'NONE',  ( 0.000000000000000000, 0.000000000000000000, 1.000000000000000000 ) ) ;
#117 = ORIENTED_EDGE ( 'NONE', *, *, #21, .F. ) ;
#118 = ADVANCED_BREP_SHAPE_REPRESENTATION ( '258e', ( #221, #195 ), #48 ) ;
#119 = CC_DESIGN_PERSON_AND_ORGANIZATION_ASSIGNMENT ( #255, #1, ( #69 ) ) ;
#120 = VERTEX_POINT ( 'NONE', #252 ) ;
#121 = EDGE_LOOP ( 'NONE', ( #158, #3 ) ) ;
#122 = ADVANCED_FACE ( 'NONE', ( #168, #14 ), #73, .T. ) ;
#123 = PRODUCT_DEFINITION_SHAPE ( 'NONE', 'NONE',  #82 ) ;
#124 = CARTESIAN_POINT ( 'NONE',  ( 0.000000000000000000, 0.000000000000000000, 5.000000000000000000 ) ) ;
#125 = APPLICATION_PROTOCOL_DEFINITION ( 'international standard', 'config_control_design', 1994, #38 ) ;
#126 = CARTESIAN_POINT ( 'NONE',  ( 0.000000000000000000, 0.000000000000000000, 5.000000000000000000 ) ) ;
#127 = APPROVAL_STATUS ( 'not_yet_approved' ) ;
#128 = DIRECTION ( 'NONE',  ( -0.000000000000000000, -0.000000000000000000, -1.000000000000000000 ) ) ;
#129 = FACE_OUTER_BOUND ( 'NONE', #22, .T. ) ;
#130 = SECURITY_CLASSIFICATION_LEVEL ( 'unclassified' ) ;
#131 = CYLINDRICAL_SURFACE ( 'NONE', #149, 5.500000000000000000 ) ;
#132 = PLANE ( 'NONE',  #181 ) ;
#133 = COORDINATED_UNIVERSAL_TIME_OFFSET ( 1, 0, .AHEAD. ) ;
#134 = ORGANIZATION ( 'NEURÈENÝ', 'NEURÈENÝ', '' ) ;
#135 = DATE_TIME_ROLE ( 'classification_date' ) ;
#136 = EDGE_LOOP ( 'NONE', ( #61, #78, #178, #241 ) ) ;
#137 = CIRCLE ( 'NONE', #64, 8.000000000000000000 ) ;
#138 = ORIENTED_EDGE ( 'NONE', *, *, #53, .F. ) ;
#139 = EDGE_CURVE ( 'NONE', #161, #177, #47, .T. ) ;
#140 = DIRECTION ( 'NONE',  ( -0.000000000000000000, -0.000000000000000000, -1.000000000000000000 ) ) ;
#141 = ORIENTED_EDGE ( 'NONE', *, *, #139, .T. ) ;
#142 = PRODUCT ( '258e', '258e', '', ( #144 ) ) ;
#143 = DIRECTION ( 'NONE',  ( -0.000000000000000000, -0.000000000000000000, -1.000000000000000000 ) ) ;
#144 = MECHANICAL_CONTEXT ( 'NONE', #38, 'mechanical' ) ;
#145 = COORDINATED_UNIVERSAL_TIME_OFFSET ( 1, 0, .AHEAD. ) ;
#146 = DIRECTION ( 'NONE',  ( 0.000000000000000000, 0.000000000000000000, 1.000000000000000000 ) ) ;
#147 = CALENDAR_DATE ( 2022, 7, 7 ) ;
#148 = DIRECTION ( 'NONE',  ( 0.000000000000000000, 0.000000000000000000, 1.000000000000000000 ) ) ;
#149 = AXIS2_PLACEMENT_3D ( 'NONE', #13, #128, #208 ) ;
#150 = AXIS2_PLACEMENT_3D ( 'NONE', #124, #170, #188 ) ;
#151 = DIRECTION ( 'NONE',  ( 1.000000000000000000, 0.000000000000000000, -0.000000000000000000 ) ) ;
#152 = CARTESIAN_POINT ( 'NONE',  ( 0.000000000000000000, 0.000000000000000000, 5.000000000000000000 ) ) ;
#153 = DESIGN_CONTEXT ( 'detailed design', #51, 'design' ) ;
#154 = APPROVAL_DATE_TIME ( #224, #165 ) ;
#155 = CC_DESIGN_APPROVAL ( #24, ( #82 ) ) ;
#156 = EDGE_LOOP ( 'NONE', ( #117, #4 ) ) ;
#157 = ADVANCED_FACE ( 'NONE', ( #89 ), #131, .T. ) ;
#158 = ORIENTED_EDGE ( 'NONE', *, *, #72, .T. ) ;
#159 = AXIS2_PLACEMENT_3D ( 'NONE', #104, #250, #151 ) ;
#160 = VERTEX_POINT ( 'NONE', #106 ) ;
#161 = VERTEX_POINT ( 'NONE', #247 ) ;
#162 = CC_DESIGN_PERSON_AND_ORGANIZATION_ASSIGNMENT ( #253, #236, ( #225 ) ) ;
#163 = CIRCLE ( 'NONE', #114, 8.000000000000000000 ) ;
#164 = APPROVAL_PERSON_ORGANIZATION ( #112, #169, #94 ) ;
#165 = APPROVAL ( #84, 'NEURÈENÝ' ) ;
#166 = PERSON ( 'NEURÈENÝ', 'NEURÈENÝ', 'NEURÈENÝ', ('NEURÈENÝ'), ('NEURÈENÝ'), ('NEURÈENÝ') ) ;
#167 =( NAMED_UNIT ( * ) PLANE_ANGLE_UNIT ( ) SI_UNIT ( $, .RADIAN. ) );
#168 = FACE_BOUND ( 'NONE', #58, .T. ) ;
#169 = APPROVAL ( #232, 'NEURÈENÝ' ) ;
#170 = DIRECTION ( 'NONE',  ( 0.000000000000000000, 0.000000000000000000, 1.000000000000000000 ) ) ;
#171 = CARTESIAN_POINT ( 'NONE',  ( 0.000000000000000000, 0.000000000000000000, 105.0000000000000142 ) ) ;
#172 = PLANE ( 'NONE',  #159 ) ;
#173 = DIRECTION ( 'NONE',  ( 1.000000000000000000, 0.000000000000000000, 0.000000000000000000 ) ) ;
#174 = LOCAL_TIME ( 19, 23, 28.00000000000000000, #71 ) ;
#175 = CARTESIAN_POINT ( 'NONE',  ( -5.500000000000000000, 0.000000000000000000, 105.0000000000000142 ) ) ;
#176 = PRODUCT_RELATED_PRODUCT_CATEGORY ( 'detail', '', ( #142 ) ) ;
#177 = VERTEX_POINT ( 'NONE', #235 ) ;
#178 = ORIENTED_EDGE ( 'NONE', *, *, #254, .T. ) ;
#179 = CC_DESIGN_PERSON_AND_ORGANIZATION_ASSIGNMENT ( #12, #87, ( #82 ) ) ;
#180 = VERTEX_POINT ( 'NONE', #213 ) ;
#181 = AXIS2_PLACEMENT_3D ( 'NONE', #31, #15, #70 ) ;
#182 = APPROVAL_PERSON_ORGANIZATION ( #67, #165, #8 ) ;
#183 = ADVANCED_FACE ( 'NONE', ( #49 ), #132, .F. ) ;
#184 = CARTESIAN_POINT ( 'NONE',  ( 5.500000000000000000, 6.735557395310442023E-16, 105.0000000000000142 ) ) ;
#185 = PERSON_AND_ORGANIZATION_ROLE ( 'design_owner' ) ;
#186 =( LENGTH_UNIT ( ) NAMED_UNIT ( * ) SI_UNIT ( .MILLI., .METRE. ) );
#187 = FACE_OUTER_BOUND ( 'NONE', #37, .T. ) ;
#188 = DIRECTION ( 'NONE',  ( 1.000000000000000000, 0.000000000000000000, 0.000000000000000000 ) ) ;
#189 = CARTESIAN_POINT ( 'NONE',  ( 0.000000000000000000, 0.000000000000000000, 105.0000000000000142 ) ) ;
#190 = CYLINDRICAL_SURFACE ( 'NONE', #109, 8.000000000000000000 ) ;
#191 = DIRECTION ( 'NONE',  ( -0.000000000000000000, -0.000000000000000000, -1.000000000000000000 ) ) ;
#192 = ADVANCED_FACE ( 'NONE', ( #129 ), #190, .T. ) ;
#193 = DIRECTION ( 'NONE',  ( 1.000000000000000000, 0.000000000000000000, 0.000000000000000000 ) ) ;
#194 = CLOSED_SHELL ( 'NONE', ( #157, #233, #192, #122, #183, #75, #204 ) ) ;
#195 = AXIS2_PLACEMENT_3D ( 'NONE', #45, #42, #102 ) ;
#196 = ORIENTED_EDGE ( 'NONE', *, *, #249, .T. ) ;
#197 = ORIENTED_EDGE ( 'NONE', *, *, #212, .F. ) ;
#198 = VERTEX_POINT ( 'NONE', #50 ) ;
#199 = CARTESIAN_POINT ( 'NONE',  ( -8.000000000000000000, 0.000000000000000000, 5.000000000000000000 ) ) ;
#200 = CC_DESIGN_DATE_AND_TIME_ASSIGNMENT ( #101, #9, ( #82 ) ) ;
#201 = DATE_AND_TIME ( #29, #202 ) ;
#202 = LOCAL_TIME ( 19, 23, 28.00000000000000000, #207 ) ;
#203 = DIRECTION ( 'NONE',  ( -0.000000000000000000, -0.000000000000000000, -1.000000000000000000 ) ) ;
#204 = ADVANCED_FACE ( 'NONE', ( #33 ), #172, .T. ) ;
#205 = PERSON_AND_ORGANIZATION ( #166, #134 ) ;
#206 = DIRECTION ( 'NONE',  ( 1.000000000000000000, 0.000000000000000000, 0.000000000000000000 ) ) ;
#207 = COORDINATED_UNIVERSAL_TIME_OFFSET ( 1, 0, .AHEAD. ) ;
#208 = DIRECTION ( 'NONE',  ( -1.000000000000000000, 0.000000000000000000, 0.000000000000000000 ) ) ;
#209 = AXIS2_PLACEMENT_3D ( 'NONE', #25, #77, #222 ) ;
#210 = CARTESIAN_POINT ( 'NONE',  ( 0.000000000000000000, 0.000000000000000000, 5.000000000000000000 ) ) ;
#211 = CARTESIAN_POINT ( 'NONE',  ( 0.000000000000000000, 0.000000000000000000, 5.000000000000000000 ) ) ;
#212 = EDGE_CURVE ( 'NONE', #120, #198, #5, .T. ) ;
#213 = CARTESIAN_POINT ( 'NONE',  ( -8.000000000000000000, 0.000000000000000000, 5.000000000000000000 ) ) ;
#214 = AXIS2_PLACEMENT_3D ( 'NONE', #171, #86, #206 ) ;
#215 = LOCAL_TIME ( 19, 23, 28.00000000000000000, #133 ) ;
#216 = CC_DESIGN_PERSON_AND_ORGANIZATION_ASSIGNMENT ( #238, #55, ( #225 ) ) ;
#217 = ORIENTED_EDGE ( 'NONE', *, *, #10, .T. ) ;
#218 = CIRCLE ( 'NONE', #214, 5.500000000000000000 ) ;
#219 = CC_DESIGN_SECURITY_CLASSIFICATION ( #69, ( #225 ) ) ;
#220 = ORIENTED_EDGE ( 'NONE', *, *, #6, .F. ) ;
#221 = MANIFOLD_SOLID_BREP ( 'Pøidat vysunutím3', #194 ) ;
#222 = DIRECTION ( 'NONE',  ( 1.000000000000000000, 0.000000000000000000, 0.000000000000000000 ) ) ;
#223 = ORIENTED_EDGE ( 'NONE', *, *, #237, .F. ) ;
#224 = DATE_AND_TIME ( #147, #115 ) ;
#225 = PRODUCT_DEFINITION_FORMATION_WITH_SPECIFIED_SOURCE ( 'LIBOVOLNÝ', '', #142, .NOT_KNOWN. ) ;
#226 = CC_DESIGN_DATE_AND_TIME_ASSIGNMENT ( #32, #135, ( #69 ) ) ;
#227 = CARTESIAN_POINT ( 'NONE',  ( 8.000000000000000000, 9.797174393178825657E-16, 5.000000000000000000 ) ) ;
#228 = DIRECTION ( 'NONE',  ( 1.000000000000000000, 0.000000000000000000, 0.000000000000000000 ) ) ;
#229 = DIRECTION ( 'NONE',  ( -1.000000000000000000, 0.000000000000000000, 0.000000000000000000 ) ) ;
#230 = DIRECTION ( 'NONE',  ( -0.000000000000000000, -0.000000000000000000, -1.000000000000000000 ) ) ;
#231 = AXIS2_PLACEMENT_3D ( 'NONE', #189, #191, #234 ) ;
#232 = APPROVAL_STATUS ( 'not_yet_approved' ) ;
#233 = ADVANCED_FACE ( 'NONE', ( #108 ), #44, .T. ) ;
#234 = DIRECTION ( 'NONE',  ( -1.000000000000000000, 0.000000000000000000, 0.000000000000000000 ) ) ;
#235 = CARTESIAN_POINT ( 'NONE',  ( -8.000000000000000000, 0.000000000000000000, 0.000000000000000000 ) ) ;
#236 = PERSON_AND_ORGANIZATION_ROLE ( 'design_supplier' ) ;
#237 = EDGE_CURVE ( 'NONE', #160, #198, #65, .T. ) ;
#238 = PERSON_AND_ORGANIZATION ( #166, #134 ) ;
#239 = DIRECTION ( 'NONE',  ( -0.000000000000000000, -0.000000000000000000, -1.000000000000000000 ) ) ;
#240 = VERTEX_POINT ( 'NONE', #103 ) ;
#241 = ORIENTED_EDGE ( 'NONE', *, *, #40, .F. ) ;
#242 = ORIENTED_EDGE ( 'NONE', *, *, #91, .T. ) ;
#243 = VECTOR ( 'NONE', #140, 1000.000000000000000 ) ;
#244 = PERSON_AND_ORGANIZATION ( #166, #134 ) ;
#245 = APPLICATION_PROTOCOL_DEFINITION ( 'international standard', 'config_control_design', 1994, #51 ) ;
#246 = DIRECTION ( 'NONE',  ( 0.000000000000000000, 0.000000000000000000, 1.000000000000000000 ) ) ;
#247 = CARTESIAN_POINT ( 'NONE',  ( 8.000000000000000000, 9.797174393178825657E-16, 0.000000000000000000 ) ) ;
#248 = CALENDAR_DATE ( 2022, 7, 7 ) ;
#249 = EDGE_CURVE ( 'NONE', #60, #161, #85, .T. ) ;
#250 = DIRECTION ( 'NONE',  ( 0.000000000000000000, 0.000000000000000000, 1.000000000000000000 ) ) ;
#251 = APPROVAL_PERSON_ORGANIZATION ( #244, #24, #62 ) ;
#252 = CARTESIAN_POINT ( 'NONE',  ( -5.500000000000000000, 0.000000000000000000, 5.000000000000000000 ) ) ;
#253 = PERSON_AND_ORGANIZATION ( #166, #134 ) ;
#254 = EDGE_CURVE ( 'NONE', #198, #120, #41, .T. ) ;
#255 = PERSON_AND_ORGANIZATION ( #166, #134 ) ;
ENDSEC;
END-ISO-10303-21;
