ISO-10303-21;
HEADER;
FILE_DESCRIPTION (( 'STEP AP203' ),
    '1' );
FILE_NAME ('854a.STEP',
    '2022-07-07T17:10:33',
    ( '' ),
    ( '' ),
    'SwSTEP 2.0',
    'SolidWorks 2019',
    '' );
FILE_SCHEMA (( 'CONFIG_CONTROL_DESIGN' ));
ENDSEC;

DATA;
#1 = CALENDAR_DATE ( 2022, 7, 7 ) ;
#2 = CIRCLE ( 'NONE', #105, 7.500000000000000000 ) ;
#3 = LOCAL_TIME ( 19, 10, 33.00000000000000000, #59 ) ;
#4 = EDGE_LOOP ( 'NONE', ( #142, #188 ) ) ;
#5 = CARTESIAN_POINT ( 'NONE',  ( 0.000000000000000000, 0.000000000000000000, 7.000000000000000000 ) ) ;
#6 = DIRECTION ( 'NONE',  ( 0.000000000000000000, 0.000000000000000000, 1.000000000000000000 ) ) ;
#7 = ORIENTED_EDGE ( 'NONE', *, *, #49, .T. ) ;
#8 = DIRECTION ( 'NONE',  ( -0.000000000000000000, -0.000000000000000000, -1.000000000000000000 ) ) ;
#9 = ORIENTED_EDGE ( 'NONE', *, *, #170, .F. ) ;
#10 = CC_DESIGN_PERSON_AND_ORGANIZATION_ASSIGNMENT ( #212, #55, ( #121 ) ) ;
#11 = EDGE_CURVE ( 'NONE', #61, #196, #238, .T. ) ;
#12 = CLOSED_SHELL ( 'NONE', ( #150, #167, #96, #60, #81, #129, #245 ) ) ;
#13 = MANIFOLD_SOLID_BREP ( 'Pøidat vysunutím3', #12 ) ;
#14 = AXIS2_PLACEMENT_3D ( 'NONE', #181, #6, #84 ) ;
#15 = LINE ( 'NONE', #132, #123 ) ;
#16 = VERTEX_POINT ( 'NONE', #161 ) ;
#17 = DIRECTION ( 'NONE',  ( -0.000000000000000000, -0.000000000000000000, -1.000000000000000000 ) ) ;
#18 = COORDINATED_UNIVERSAL_TIME_OFFSET ( 1, 0, .AHEAD. ) ;
#19 = EDGE_CURVE ( 'NONE', #115, #16, #163, .T. ) ;
#20 = SHAPE_DEFINITION_REPRESENTATION ( #247, #240 ) ;
#21 = DIRECTION ( 'NONE',  ( 1.000000000000000000, 0.000000000000000000, 0.000000000000000000 ) ) ;
#22 = EDGE_CURVE ( 'NONE', #83, #215, #206, .T. ) ;
#23 = PERSON_AND_ORGANIZATION ( #135, #63 ) ;
#24 = CARTESIAN_POINT ( 'NONE',  ( -11.00000000000000000, 0.000000000000000000, 7.000000000000000000 ) ) ;
#25 = DIRECTION ( 'NONE',  ( 1.000000000000000000, 0.000000000000000000, 0.000000000000000000 ) ) ;
#26 = ORIENTED_EDGE ( 'NONE', *, *, #143, .F. ) ;
#27 = EDGE_LOOP ( 'NONE', ( #241, #118, #7, #198 ) ) ;
#28 = ORIENTED_EDGE ( 'NONE', *, *, #131, .T. ) ;
#29 = ORIENTED_EDGE ( 'NONE', *, *, #19, .F. ) ;
#30 = ORIENTED_EDGE ( 'NONE', *, *, #131, .F. ) ;
#31 = LINE ( 'NONE', #24, #79 ) ;
#32 = CYLINDRICAL_SURFACE ( 'NONE', #250, 11.00000000000000000 ) ;
#33 = APPROVAL_ROLE ( '' ) ;
#34 = FACE_OUTER_BOUND ( 'NONE', #27, .T. ) ;
#35 = PERSON_AND_ORGANIZATION ( #135, #63 ) ;
#36 = DIRECTION ( 'NONE',  ( 1.000000000000000000, 0.000000000000000000, -0.000000000000000000 ) ) ;
#37 = CC_DESIGN_SECURITY_CLASSIFICATION ( #228, ( #121 ) ) ;
#38 = EDGE_LOOP ( 'NONE', ( #182, #40, #243, #29 ) ) ;
#39 = VECTOR ( 'NONE', #101, 1000.000000000000000 ) ;
#40 = ORIENTED_EDGE ( 'NONE', *, *, #11, .T. ) ;
#41 = CIRCLE ( 'NONE', #239, 7.500000000000000000 ) ;
#42 = FACE_BOUND ( 'NONE', #45, .T. ) ;
#43 = CARTESIAN_POINT ( 'NONE',  ( -7.500000000000000000, 0.000000000000000000, 207.0000000000000284 ) ) ;
#44 = AXIS2_PLACEMENT_3D ( 'NONE', #5, #62, #139 ) ;
#45 = EDGE_LOOP ( 'NONE', ( #30, #9 ) ) ;
#46 = PERSON_AND_ORGANIZATION ( #135, #63 ) ;
#47 = CARTESIAN_POINT ( 'NONE',  ( 0.000000000000000000, 0.000000000000000000, 207.0000000000000284 ) ) ;
#48 = CARTESIAN_POINT ( 'NONE',  ( -11.00000000000000000, 0.000000000000000000, 7.000000000000000000 ) ) ;
#49 = EDGE_CURVE ( 'NONE', #159, #65, #195, .T. ) ;
#50 = AXIS2_PLACEMENT_3D ( 'NONE', #199, #244, #236 ) ;
#51 = PERSON_AND_ORGANIZATION ( #135, #63 ) ;
#52 = DIRECTION ( 'NONE',  ( -1.000000000000000000, 0.000000000000000000, 0.000000000000000000 ) ) ;
#53 = PRODUCT ( '854a', '854a', '', ( #95 ) ) ;
#54 = LOCAL_TIME ( 19, 10, 33.00000000000000000, #249 ) ;
#55 = PERSON_AND_ORGANIZATION_ROLE ( 'creator' ) ;
#56 = DIRECTION ( 'NONE',  ( 1.000000000000000000, 0.000000000000000000, 0.000000000000000000 ) ) ;
#57 = CALENDAR_DATE ( 2022, 7, 7 ) ;
#58 = CARTESIAN_POINT ( 'NONE',  ( 7.500000000000000000, 9.184850993605147944E-16, 7.000000000000000000 ) ) ;
#59 = COORDINATED_UNIVERSAL_TIME_OFFSET ( 1, 0, .AHEAD. ) ;
#60 = ADVANCED_FACE ( 'NONE', ( #42, #183 ), #201, .T. ) ;
#61 = VERTEX_POINT ( 'NONE', #99 ) ;
#62 = DIRECTION ( 'NONE',  ( 0.000000000000000000, 0.000000000000000000, 1.000000000000000000 ) ) ;
#63 = ORGANIZATION ( 'NEURÈENÝ', 'NEURÈENÝ', '' ) ;
#64 = EDGE_LOOP ( 'NONE', ( #166, #120 ) ) ;
#65 = VERTEX_POINT ( 'NONE', #117 ) ;
#66 = CC_DESIGN_APPROVAL ( #144, ( #228 ) ) ;
#67 = EDGE_CURVE ( 'NONE', #61, #115, #87, .T. ) ;
#68 = PRODUCT_DEFINITION ( 'NEZNÁMÝ', '', #121, #160 ) ;
#69 = APPROVAL_DATE_TIME ( #186, #144 ) ;
#70 = AXIS2_PLACEMENT_3D ( 'NONE', #47, #71, #146 ) ;
#71 = DIRECTION ( 'NONE',  ( 0.000000000000000000, 0.000000000000000000, 1.000000000000000000 ) ) ;
#72 = DATE_TIME_ROLE ( 'classification_date' ) ;
#73 = DIRECTION ( 'NONE',  ( 1.000000000000000000, 0.000000000000000000, 0.000000000000000000 ) ) ;
#74 = APPLICATION_PROTOCOL_DEFINITION ( 'international standard', 'config_control_design', 1994, #155 ) ;
#75 = CARTESIAN_POINT ( 'NONE',  ( 11.00000000000000000, 1.347111479062088405E-15, 7.000000000000000000 ) ) ;
#76 = APPROVAL_PERSON_ORGANIZATION ( #93, #231, #78 ) ;
#77 = CARTESIAN_POINT ( 'NONE',  ( 11.00000000000000000, 1.347111479062088405E-15, 0.000000000000000000 ) ) ;
#78 = APPROVAL_ROLE ( '' ) ;
#79 = VECTOR ( 'NONE', #232, 1000.000000000000000 ) ;
#80 = CC_DESIGN_PERSON_AND_ORGANIZATION_ASSIGNMENT ( #51, #211, ( #68 ) ) ;
#81 = ADVANCED_FACE ( 'NONE', ( #119 ), #251, .F. ) ;
#82 = DIRECTION ( 'NONE',  ( 0.000000000000000000, 0.000000000000000000, 1.000000000000000000 ) ) ;
#83 = VERTEX_POINT ( 'NONE', #75 ) ;
#84 = DIRECTION ( 'NONE',  ( 1.000000000000000000, 0.000000000000000000, 0.000000000000000000 ) ) ;
#85 = ORIENTED_EDGE ( 'NONE', *, *, #179, .F. ) ;
#86 = CARTESIAN_POINT ( 'NONE',  ( 7.500000000000000000, 9.184850993605147944E-16, 207.0000000000000284 ) ) ;
#87 = CIRCLE ( 'NONE', #14, 7.500000000000000000 ) ;
#88 = LOCAL_TIME ( 19, 10, 33.00000000000000000, #18 ) ;
#89 = CARTESIAN_POINT ( 'NONE',  ( -7.500000000000000000, 0.000000000000000000, 207.0000000000000284 ) ) ;
#90 = DIRECTION ( 'NONE',  ( -1.000000000000000000, 0.000000000000000000, 0.000000000000000000 ) ) ;
#91 = PERSON_AND_ORGANIZATION_ROLE ( 'design_owner' ) ;
#92 = DIRECTION ( 'NONE',  ( -0.000000000000000000, -0.000000000000000000, -1.000000000000000000 ) ) ;
#93 = PERSON_AND_ORGANIZATION ( #135, #63 ) ;
#94 = CARTESIAN_POINT ( 'NONE',  ( 0.000000000000000000, 0.000000000000000000, 0.000000000000000000 ) ) ;
#95 = MECHANICAL_CONTEXT ( 'NONE', #155, 'mechanical' ) ;
#96 = ADVANCED_FACE ( 'NONE', ( #191 ), #32, .T. ) ;
#97 = LOCAL_TIME ( 19, 10, 33.00000000000000000, #168 ) ;
#98 = ORIENTED_EDGE ( 'NONE', *, *, #19, .T. ) ;
#99 = CARTESIAN_POINT ( 'NONE',  ( 7.500000000000000000, 9.184850993605147944E-16, 207.0000000000000284 ) ) ;
#100 = PRODUCT_RELATED_PRODUCT_CATEGORY ( 'detail', '', ( #53 ) ) ;
#101 = DIRECTION ( 'NONE',  ( -0.000000000000000000, -0.000000000000000000, -1.000000000000000000 ) ) ;
#102 = ORIENTED_EDGE ( 'NONE', *, *, #143, .T. ) ;
#103 = CIRCLE ( 'NONE', #237, 7.500000000000000000 ) ;
#104 = EDGE_CURVE ( 'NONE', #215, #65, #31, .T. ) ;
#105 = AXIS2_PLACEMENT_3D ( 'NONE', #154, #165, #21 ) ;
#106 = CARTESIAN_POINT ( 'NONE',  ( 0.000000000000000000, 0.000000000000000000, 7.000000000000000000 ) ) ;
#107 = DIRECTION ( 'NONE',  ( 0.000000000000000000, 0.000000000000000000, 1.000000000000000000 ) ) ;
#108 = CYLINDRICAL_SURFACE ( 'NONE', #174, 7.500000000000000000 ) ;
#109 = PERSON_AND_ORGANIZATION_ROLE ( 'classification_officer' ) ;
#110 = DIRECTION ( 'NONE',  ( -0.000000000000000000, -0.000000000000000000, -1.000000000000000000 ) ) ;
#111 = CC_DESIGN_DATE_AND_TIME_ASSIGNMENT ( #133, #72, ( #228 ) ) ;
#112 = AXIS2_PLACEMENT_3D ( 'NONE', #134, #126, #145 ) ;
#113 = AXIS2_PLACEMENT_3D ( 'NONE', #175, #255, #25 ) ;
#114 = PERSON_AND_ORGANIZATION_ROLE ( 'design_supplier' ) ;
#115 = VERTEX_POINT ( 'NONE', #89 ) ;
#116 = APPROVAL_PERSON_ORGANIZATION ( #46, #144, #147 ) ;
#117 = CARTESIAN_POINT ( 'NONE',  ( -11.00000000000000000, 0.000000000000000000, 0.000000000000000000 ) ) ;
#118 = ORIENTED_EDGE ( 'NONE', *, *, #179, .T. ) ;
#119 = FACE_OUTER_BOUND ( 'NONE', #4, .T. ) ;
#120 = ORIENTED_EDGE ( 'NONE', *, *, #22, .T. ) ;
#121 = PRODUCT_DEFINITION_FORMATION_WITH_SPECIFIED_SOURCE ( 'LIBOVOLNÝ', '', #53, .NOT_KNOWN. ) ;
#122 = EDGE_CURVE ( 'NONE', #65, #159, #217, .T. ) ;
#123 = VECTOR ( 'NONE', #92, 1000.000000000000000 ) ;
#124 = APPROVAL_STATUS ( 'not_yet_approved' ) ;
#125 = CARTESIAN_POINT ( 'NONE',  ( 0.000000000000000000, 0.000000000000000000, 0.000000000000000000 ) ) ;
#126 = DIRECTION ( 'NONE',  ( 0.000000000000000000, 0.000000000000000000, 1.000000000000000000 ) ) ;
#127 = CALENDAR_DATE ( 2022, 7, 7 ) ;
#128 = DIRECTION ( 'NONE',  ( 1.000000000000000000, 0.000000000000000000, 0.000000000000000000 ) ) ;
#129 = ADVANCED_FACE ( 'NONE', ( #172 ), #173, .T. ) ;
#130 = DATE_TIME_ROLE ( 'creation_date' ) ;
#131 = EDGE_CURVE ( 'NONE', #16, #196, #103, .T. ) ;
#132 = CARTESIAN_POINT ( 'NONE',  ( 11.00000000000000000, 1.347111479062088405E-15, 7.000000000000000000 ) ) ;
#133 = DATE_AND_TIME ( #57, #208 ) ;
#134 = CARTESIAN_POINT ( 'NONE',  ( 0.000000000000000000, 0.000000000000000000, 7.000000000000000000 ) ) ;
#135 = PERSON ( 'NEURÈENÝ', 'NEURÈENÝ', 'NEURÈENÝ', ('NEURÈENÝ'), ('NEURÈENÝ'), ('NEURÈENÝ') ) ;
#136 = DATE_AND_TIME ( #230, #88 ) ;
#137 = AXIS2_PLACEMENT_3D ( 'NONE', #187, #17, #52 ) ;
#138 = DIRECTION ( 'NONE',  ( 1.000000000000000000, 0.000000000000000000, 0.000000000000000000 ) ) ;
#139 = DIRECTION ( 'NONE',  ( 1.000000000000000000, 0.000000000000000000, 0.000000000000000000 ) ) ;
#140 = APPROVAL ( #207, 'NEURÈENÝ' ) ;
#141 = ORIENTED_EDGE ( 'NONE', *, *, #122, .T. ) ;
#142 = ORIENTED_EDGE ( 'NONE', *, *, #122, .F. ) ;
#143 = EDGE_CURVE ( 'NONE', #115, #61, #41, .T. ) ;
#144 = APPROVAL ( #124, 'NEURÈENÝ' ) ;
#145 = DIRECTION ( 'NONE',  ( 1.000000000000000000, 0.000000000000000000, 0.000000000000000000 ) ) ;
#146 = DIRECTION ( 'NONE',  ( 1.000000000000000000, 0.000000000000000000, -0.000000000000000000 ) ) ;
#147 = APPROVAL_ROLE ( '' ) ;
#148 = FACE_OUTER_BOUND ( 'NONE', #38, .T. ) ;
#149 = AXIS2_PLACEMENT_3D ( 'NONE', #94, #107, #128 ) ;
#150 = ADVANCED_FACE ( 'NONE', ( #148 ), #108, .T. ) ;
#151 = APPROVAL_DATE_TIME ( #136, #140 ) ;
#152 = CARTESIAN_POINT ( 'NONE',  ( 0.000000000000000000, 0.000000000000000000, 7.000000000000000000 ) ) ;
#153 = COORDINATED_UNIVERSAL_TIME_OFFSET ( 1, 0, .AHEAD. ) ;
#154 = CARTESIAN_POINT ( 'NONE',  ( 0.000000000000000000, 0.000000000000000000, 7.000000000000000000 ) ) ;
#155 = APPLICATION_CONTEXT ( 'configuration controlled 3d designs of mechanical parts and assemblies' ) ;
#156 = DATE_AND_TIME ( #1, #3 ) ;
#157 = DATE_AND_TIME ( #127, #54 ) ;
#158 = ORIENTED_EDGE ( 'NONE', *, *, #11, .F. ) ;
#159 = VERTEX_POINT ( 'NONE', #77 ) ;
#160 = DESIGN_CONTEXT ( 'detailed design', #178, 'design' ) ;
#161 = CARTESIAN_POINT ( 'NONE',  ( -7.500000000000000000, 0.000000000000000000, 7.000000000000000000 ) ) ;
#162 = EDGE_LOOP ( 'NONE', ( #102, #213 ) ) ;
#163 = LINE ( 'NONE', #43, #200 ) ;
#164 =( GEOMETRIC_REPRESENTATION_CONTEXT ( 3 ) GLOBAL_UNCERTAINTY_ASSIGNED_CONTEXT ( ( #204 ) ) GLOBAL_UNIT_ASSIGNED_CONTEXT ( ( #194, #235, #253 ) ) REPRESENTATION_CONTEXT ( 'NONE', 'WORKASPACE' ) );
#165 = DIRECTION ( 'NONE',  ( 0.000000000000000000, 0.000000000000000000, 1.000000000000000000 ) ) ;
#166 = ORIENTED_EDGE ( 'NONE', *, *, #219, .T. ) ;
#167 = ADVANCED_FACE ( 'NONE', ( #34 ), #205, .T. ) ;
#168 = COORDINATED_UNIVERSAL_TIME_OFFSET ( 1, 0, .AHEAD. ) ;
#169 = DIRECTION ( 'NONE',  ( 0.000000000000000000, 0.000000000000000000, 1.000000000000000000 ) ) ;
#170 = EDGE_CURVE ( 'NONE', #196, #16, #2, .T. ) ;
#171 = APPROVAL_DATE_TIME ( #156, #231 ) ;
#172 = FACE_OUTER_BOUND ( 'NONE', #216, .T. ) ;
#173 = CYLINDRICAL_SURFACE ( 'NONE', #137, 7.500000000000000000 ) ;
#174 = AXIS2_PLACEMENT_3D ( 'NONE', #254, #226, #229 ) ;
#175 = CARTESIAN_POINT ( 'NONE',  ( 0.000000000000000000, 0.000000000000000000, 0.000000000000000000 ) ) ;
#176 = APPLICATION_PROTOCOL_DEFINITION ( 'international standard', 'config_control_design', 1994, #178 ) ;
#177 = CC_DESIGN_PERSON_AND_ORGANIZATION_ASSIGNMENT ( #35, #109, ( #228 ) ) ;
#178 = APPLICATION_CONTEXT ( 'configuration controlled 3d designs of mechanical parts and assemblies' ) ;
#179 = EDGE_CURVE ( 'NONE', #83, #159, #15, .T. ) ;
#180 = ORIENTED_EDGE ( 'NONE', *, *, #104, .T. ) ;
#181 = CARTESIAN_POINT ( 'NONE',  ( 0.000000000000000000, 0.000000000000000000, 207.0000000000000284 ) ) ;
#182 = ORIENTED_EDGE ( 'NONE', *, *, #67, .F. ) ;
#183 = FACE_OUTER_BOUND ( 'NONE', #64, .T. ) ;
#184 = CC_DESIGN_DATE_AND_TIME_ASSIGNMENT ( #157, #130, ( #68 ) ) ;
#185 = DIRECTION ( 'NONE',  ( -0.000000000000000000, -0.000000000000000000, -1.000000000000000000 ) ) ;
#186 = DATE_AND_TIME ( #220, #97 ) ;
#187 = CARTESIAN_POINT ( 'NONE',  ( 0.000000000000000000, 0.000000000000000000, 207.0000000000000284 ) ) ;
#188 = ORIENTED_EDGE ( 'NONE', *, *, #49, .F. ) ;
#189 = PERSON_AND_ORGANIZATION ( #135, #63 ) ;
#190 = DIRECTION ( 'NONE',  ( -1.000000000000000000, 0.000000000000000000, 0.000000000000000000 ) ) ;
#191 = FACE_OUTER_BOUND ( 'NONE', #203, .T. ) ;
#192 = CIRCLE ( 'NONE', #112, 11.00000000000000000 ) ;
#193 = CC_DESIGN_APPROVAL ( #140, ( #121 ) ) ;
#194 =( LENGTH_UNIT ( ) NAMED_UNIT ( * ) SI_UNIT ( .MILLI., .METRE. ) );
#195 = CIRCLE ( 'NONE', #234, 11.00000000000000000 ) ;
#196 = VERTEX_POINT ( 'NONE', #58 ) ;
#197 = CC_DESIGN_APPROVAL ( #231, ( #68 ) ) ;
#198 = ORIENTED_EDGE ( 'NONE', *, *, #104, .F. ) ;
#199 = CARTESIAN_POINT ( 'NONE',  ( 0.000000000000000000, 0.000000000000000000, 7.000000000000000000 ) ) ;
#200 = VECTOR ( 'NONE', #8, 1000.000000000000000 ) ;
#201 = PLANE ( 'NONE',  #50 ) ;
#202 = APPROVAL_PERSON_ORGANIZATION ( #233, #140, #33 ) ;
#203 = EDGE_LOOP ( 'NONE', ( #85, #242, #180, #141 ) ) ;
#204 = UNCERTAINTY_MEASURE_WITH_UNIT (LENGTH_MEASURE( 1.000000000000000082E-05 ), #194, 'distance_accuracy_value', 'NONE');
#205 = CYLINDRICAL_SURFACE ( 'NONE', #221, 11.00000000000000000 ) ;
#206 = CIRCLE ( 'NONE', #44, 11.00000000000000000 ) ;
#207 = APPROVAL_STATUS ( 'not_yet_approved' ) ;
#208 = LOCAL_TIME ( 19, 10, 33.00000000000000000, #153 ) ;
#209 = DIRECTION ( 'NONE',  ( 0.000000000000000000, 0.000000000000000000, 1.000000000000000000 ) ) ;
#210 = CARTESIAN_POINT ( 'NONE',  ( 0.000000000000000000, 0.000000000000000000, 7.000000000000000000 ) ) ;
#211 = PERSON_AND_ORGANIZATION_ROLE ( 'creator' ) ;
#212 = PERSON_AND_ORGANIZATION ( #135, #63 ) ;
#213 = ORIENTED_EDGE ( 'NONE', *, *, #67, .T. ) ;
#214 = CC_DESIGN_PERSON_AND_ORGANIZATION_ASSIGNMENT ( #189, #114, ( #121 ) ) ;
#215 = VERTEX_POINT ( 'NONE', #48 ) ;
#216 = EDGE_LOOP ( 'NONE', ( #158, #26, #98, #28 ) ) ;
#217 = CIRCLE ( 'NONE', #149, 11.00000000000000000 ) ;
#218 = CARTESIAN_POINT ( 'NONE',  ( 0.000000000000000000, 0.000000000000000000, 0.000000000000000000 ) ) ;
#219 = EDGE_CURVE ( 'NONE', #215, #83, #192, .T. ) ;
#220 = CALENDAR_DATE ( 2022, 7, 7 ) ;
#221 = AXIS2_PLACEMENT_3D ( 'NONE', #106, #185, #190 ) ;
#222 = FACE_OUTER_BOUND ( 'NONE', #162, .T. ) ;
#223 = DIRECTION ( 'NONE',  ( 0.000000000000000000, 0.000000000000000000, 1.000000000000000000 ) ) ;
#224 = APPROVAL_STATUS ( 'not_yet_approved' ) ;
#225 = AXIS2_PLACEMENT_3D ( 'NONE', #125, #169, #36 ) ;
#226 = DIRECTION ( 'NONE',  ( -0.000000000000000000, -0.000000000000000000, -1.000000000000000000 ) ) ;
#227 = SECURITY_CLASSIFICATION_LEVEL ( 'unclassified' ) ;
#228 = SECURITY_CLASSIFICATION ( '', '', #227 ) ;
#229 = DIRECTION ( 'NONE',  ( -1.000000000000000000, 0.000000000000000000, 0.000000000000000000 ) ) ;
#230 = CALENDAR_DATE ( 2022, 7, 7 ) ;
#231 = APPROVAL ( #224, 'NEURÈENÝ' ) ;
#232 = DIRECTION ( 'NONE',  ( -0.000000000000000000, -0.000000000000000000, -1.000000000000000000 ) ) ;
#233 = PERSON_AND_ORGANIZATION ( #135, #63 ) ;
#234 = AXIS2_PLACEMENT_3D ( 'NONE', #218, #82, #138 ) ;
#235 =( NAMED_UNIT ( * ) PLANE_ANGLE_UNIT ( ) SI_UNIT ( $, .RADIAN. ) );
#236 = DIRECTION ( 'NONE',  ( 1.000000000000000000, 0.000000000000000000, -0.000000000000000000 ) ) ;
#237 = AXIS2_PLACEMENT_3D ( 'NONE', #152, #223, #56 ) ;
#238 = LINE ( 'NONE', #86, #39 ) ;
#239 = AXIS2_PLACEMENT_3D ( 'NONE', #248, #209, #73 ) ;
#240 = ADVANCED_BREP_SHAPE_REPRESENTATION ( '854a', ( #13, #113 ), #164 ) ;
#241 = ORIENTED_EDGE ( 'NONE', *, *, #22, .F. ) ;
#242 = ORIENTED_EDGE ( 'NONE', *, *, #219, .F. ) ;
#243 = ORIENTED_EDGE ( 'NONE', *, *, #170, .T. ) ;
#244 = DIRECTION ( 'NONE',  ( 0.000000000000000000, 0.000000000000000000, 1.000000000000000000 ) ) ;
#245 = ADVANCED_FACE ( 'NONE', ( #222 ), #246, .T. ) ;
#246 = PLANE ( 'NONE',  #70 ) ;
#247 = PRODUCT_DEFINITION_SHAPE ( 'NONE', 'NONE',  #68 ) ;
#248 = CARTESIAN_POINT ( 'NONE',  ( 0.000000000000000000, 0.000000000000000000, 207.0000000000000284 ) ) ;
#249 = COORDINATED_UNIVERSAL_TIME_OFFSET ( 1, 0, .AHEAD. ) ;
#250 = AXIS2_PLACEMENT_3D ( 'NONE', #210, #110, #90 ) ;
#251 = PLANE ( 'NONE',  #225 ) ;
#252 = CC_DESIGN_PERSON_AND_ORGANIZATION_ASSIGNMENT ( #23, #91, ( #53 ) ) ;
#253 =( NAMED_UNIT ( * ) SI_UNIT ( $, .STERADIAN. ) SOLID_ANGLE_UNIT ( ) );
#254 = CARTESIAN_POINT ( 'NONE',  ( 0.000000000000000000, 0.000000000000000000, 207.0000000000000284 ) ) ;
#255 = DIRECTION ( 'NONE',  ( 0.000000000000000000, 0.000000000000000000, 1.000000000000000000 ) ) ;
ENDSEC;
END-ISO-10303-21;
