ISO-10303-21;
HEADER;
FILE_DESCRIPTION (( 'STEP AP203' ),
    '1' );
FILE_NAME ('596c.STEP',
    '2022-07-07T17:45:22',
    ( '' ),
    ( '' ),
    'SwSTEP 2.0',
    'SolidWorks 2019',
    '' );
FILE_SCHEMA (( 'CONFIG_CONTROL_DESIGN' ));
ENDSEC;

DATA;
#1 = DIRECTION ( 'NONE',  ( -0.000000000000000000, -0.000000000000000000, -1.000000000000000000 ) ) ;
#2 = CC_DESIGN_APPROVAL ( #195, ( #160 ) ) ;
#3 = DIRECTION ( 'NONE',  ( 0.000000000000000000, 0.000000000000000000, 1.000000000000000000 ) ) ;
#4 = ORIENTED_EDGE ( 'NONE', *, *, #167, .T. ) ;
#5 =( NAMED_UNIT ( * ) PLANE_ANGLE_UNIT ( ) SI_UNIT ( $, .RADIAN. ) );
#6 = EDGE_LOOP ( 'NONE', ( #25, #45 ) ) ;
#7 = EDGE_CURVE ( 'NONE', #224, #91, #77, .T. ) ;
#8 = DIRECTION ( 'NONE',  ( 0.000000000000000000, 0.000000000000000000, 1.000000000000000000 ) ) ;
#9 = CC_DESIGN_SECURITY_CLASSIFICATION ( #28, ( #160 ) ) ;
#10 = DIRECTION ( 'NONE',  ( 0.000000000000000000, 0.000000000000000000, 1.000000000000000000 ) ) ;
#11 = FACE_BOUND ( 'NONE', #6, .T. ) ;
#12 = ADVANCED_FACE ( 'NONE', ( #50 ), #207, .T. ) ;
#13 = CARTESIAN_POINT ( 'NONE',  ( -5.000000000000000000, 0.000000000000000000, 3.000000000000000000 ) ) ;
#14 = APPLICATION_PROTOCOL_DEFINITION ( 'international standard', 'config_control_design', 1994, #47 ) ;
#15 = PERSON_AND_ORGANIZATION ( #16, #39 ) ;
#16 = PERSON ( 'NEURÈENÝ', 'NEURÈENÝ', 'NEURÈENÝ', ('NEURÈENÝ'), ('NEURÈENÝ'), ('NEURÈENÝ') ) ;
#17 = CALENDAR_DATE ( 2022, 7, 7 ) ;
#18 = EDGE_CURVE ( 'NONE', #205, #221, #57, .T. ) ;
#19 = EDGE_LOOP ( 'NONE', ( #4, #188 ) ) ;
#20 = CYLINDRICAL_SURFACE ( 'NONE', #253, 5.000000000000000000 ) ;
#21 = PERSON_AND_ORGANIZATION ( #16, #39 ) ;
#22 = ORIENTED_EDGE ( 'NONE', *, *, #167, .F. ) ;
#23 = CARTESIAN_POINT ( 'NONE',  ( 0.000000000000000000, 0.000000000000000000, 3.000000000000000000 ) ) ;
#24 = PRODUCT_RELATED_PRODUCT_CATEGORY ( 'detail', '', ( #252 ) ) ;
#25 = ORIENTED_EDGE ( 'NONE', *, *, #59, .F. ) ;
#26 = AXIS2_PLACEMENT_3D ( 'NONE', #152, #111, #189 ) ;
#27 = ORIENTED_EDGE ( 'NONE', *, *, #183, .T. ) ;
#28 = SECURITY_CLASSIFICATION ( '', '', #40 ) ;
#29 = DIRECTION ( 'NONE',  ( 0.000000000000000000, 0.000000000000000000, 1.000000000000000000 ) ) ;
#30 = CARTESIAN_POINT ( 'NONE',  ( 0.000000000000000000, 0.000000000000000000, 3.000000000000000000 ) ) ;
#31 = DATE_AND_TIME ( #210, #147 ) ;
#32 = CARTESIAN_POINT ( 'NONE',  ( -2.600000000000000089, 0.000000000000000000, 253.0000000000000000 ) ) ;
#33 = CALENDAR_DATE ( 2022, 7, 7 ) ;
#34 = UNCERTAINTY_MEASURE_WITH_UNIT (LENGTH_MEASURE( 1.000000000000000082E-05 ), #44, 'distance_accuracy_value', 'NONE');
#35 = CIRCLE ( 'NONE', #172, 2.600000000000000089 ) ;
#36 = PERSON_AND_ORGANIZATION ( #16, #39 ) ;
#37 = CC_DESIGN_PERSON_AND_ORGANIZATION_ASSIGNMENT ( #251, #250, ( #28 ) ) ;
#38 = LOCAL_TIME ( 19, 45, 22.00000000000000000, #213 ) ;
#39 = ORGANIZATION ( 'NEURÈENÝ', 'NEURÈENÝ', '' ) ;
#40 = SECURITY_CLASSIFICATION_LEVEL ( 'unclassified' ) ;
#41 = CIRCLE ( 'NONE', #230, 5.000000000000000000 ) ;
#42 = ORIENTED_EDGE ( 'NONE', *, *, #183, .F. ) ;
#43 = LINE ( 'NONE', #198, #233 ) ;
#44 =( LENGTH_UNIT ( ) NAMED_UNIT ( * ) SI_UNIT ( .MILLI., .METRE. ) );
#45 = ORIENTED_EDGE ( 'NONE', *, *, #124, .F. ) ;
#46 = CARTESIAN_POINT ( 'NONE',  ( 0.000000000000000000, 0.000000000000000000, 3.000000000000000000 ) ) ;
#47 = APPLICATION_CONTEXT ( 'configuration controlled 3d designs of mechanical parts and assemblies' ) ;
#48 = ORIENTED_EDGE ( 'NONE', *, *, #132, .F. ) ;
#49 = CARTESIAN_POINT ( 'NONE',  ( 5.000000000000000000, 6.123233995736766282E-16, 3.000000000000000000 ) ) ;
#50 = FACE_OUTER_BOUND ( 'NONE', #131, .T. ) ;
#51 = ADVANCED_FACE ( 'NONE', ( #94 ), #227, .T. ) ;
#52 = CARTESIAN_POINT ( 'NONE',  ( 2.600000000000000089, 3.184081677783118191E-16, 3.000000000000000000 ) ) ;
#53 = ORIENTED_EDGE ( 'NONE', *, *, #206, .T. ) ;
#54 = DIRECTION ( 'NONE',  ( 0.000000000000000000, 0.000000000000000000, 1.000000000000000000 ) ) ;
#55 = DIRECTION ( 'NONE',  ( 0.000000000000000000, 0.000000000000000000, 1.000000000000000000 ) ) ;
#56 = APPROVAL_ROLE ( '' ) ;
#57 = CIRCLE ( 'NONE', #101, 2.600000000000000089 ) ;
#58 = AXIS2_PLACEMENT_3D ( 'NONE', #66, #222, #126 ) ;
#59 = EDGE_CURVE ( 'NONE', #154, #108, #35, .T. ) ;
#60 = PERSON_AND_ORGANIZATION_ROLE ( 'design_supplier' ) ;
#61 = AXIS2_PLACEMENT_3D ( 'NONE', #93, #55, #135 ) ;
#62 = DATE_TIME_ROLE ( 'classification_date' ) ;
#63 = APPROVAL ( #231, 'NEURÈENÝ' ) ;
#64 = AXIS2_PLACEMENT_3D ( 'NONE', #88, #106, #236 ) ;
#65 = ORIENTED_EDGE ( 'NONE', *, *, #124, .T. ) ;
#66 = CARTESIAN_POINT ( 'NONE',  ( 0.000000000000000000, 0.000000000000000000, 253.0000000000000000 ) ) ;
#67 = DIRECTION ( 'NONE',  ( 0.000000000000000000, 0.000000000000000000, 1.000000000000000000 ) ) ;
#68 = ADVANCED_FACE ( 'NONE', ( #110 ), #229, .F. ) ;
#69 = CARTESIAN_POINT ( 'NONE',  ( -2.600000000000000089, 0.000000000000000000, 253.0000000000000000 ) ) ;
#70 = MANIFOLD_SOLID_BREP ( 'Pøidat vysunutím3', #83 ) ;
#71 = EDGE_LOOP ( 'NONE', ( #90, #42 ) ) ;
#72 = DIRECTION ( 'NONE',  ( -0.000000000000000000, -0.000000000000000000, -1.000000000000000000 ) ) ;
#73 = CARTESIAN_POINT ( 'NONE',  ( 0.000000000000000000, 0.000000000000000000, 3.000000000000000000 ) ) ;
#74 = DIRECTION ( 'NONE',  ( 1.000000000000000000, 0.000000000000000000, 0.000000000000000000 ) ) ;
#75 = PERSON_AND_ORGANIZATION ( #16, #39 ) ;
#76 = CARTESIAN_POINT ( 'NONE',  ( 0.000000000000000000, 0.000000000000000000, 253.0000000000000000 ) ) ;
#77 = CIRCLE ( 'NONE', #180, 5.000000000000000000 ) ;
#78 = VECTOR ( 'NONE', #107, 1000.000000000000000 ) ;
#79 = CC_DESIGN_PERSON_AND_ORGANIZATION_ASSIGNMENT ( #99, #60, ( #160 ) ) ;
#80 = COORDINATED_UNIVERSAL_TIME_OFFSET ( 1, 0, .AHEAD. ) ;
#81 = DATE_AND_TIME ( #157, #249 ) ;
#82 = AXIS2_PLACEMENT_3D ( 'NONE', #146, #203, #185 ) ;
#83 = CLOSED_SHELL ( 'NONE', ( #254, #158, #151, #87, #68, #12, #51 ) ) ;
#84 = ORIENTED_EDGE ( 'NONE', *, *, #7, .T. ) ;
#85 = FACE_OUTER_BOUND ( 'NONE', #241, .T. ) ;
#86 = CIRCLE ( 'NONE', #64, 5.000000000000000000 ) ;
#87 = ADVANCED_FACE ( 'NONE', ( #11, #166 ), #246, .T. ) ;
#88 = CARTESIAN_POINT ( 'NONE',  ( 0.000000000000000000, 0.000000000000000000, 0.000000000000000000 ) ) ;
#89 = FACE_OUTER_BOUND ( 'NONE', #144, .T. ) ;
#90 = ORIENTED_EDGE ( 'NONE', *, *, #223, .F. ) ;
#91 = VERTEX_POINT ( 'NONE', #150 ) ;
#92 =( GEOMETRIC_REPRESENTATION_CONTEXT ( 3 ) GLOBAL_UNCERTAINTY_ASSIGNED_CONTEXT ( ( #34 ) ) GLOBAL_UNIT_ASSIGNED_CONTEXT ( ( #44, #5, #237 ) ) REPRESENTATION_CONTEXT ( 'NONE', 'WORKASPACE' ) );
#93 = CARTESIAN_POINT ( 'NONE',  ( 0.000000000000000000, 0.000000000000000000, 0.000000000000000000 ) ) ;
#94 = FACE_OUTER_BOUND ( 'NONE', #19, .T. ) ;
#95 = DIRECTION ( 'NONE',  ( -0.000000000000000000, -0.000000000000000000, -1.000000000000000000 ) ) ;
#96 = APPROVAL_PERSON_ORGANIZATION ( #75, #63, #56 ) ;
#97 = ORIENTED_EDGE ( 'NONE', *, *, #206, .F. ) ;
#98 = PERSON_AND_ORGANIZATION ( #16, #39 ) ;
#99 = PERSON_AND_ORGANIZATION ( #16, #39 ) ;
#100 = DATE_AND_TIME ( #17, #156 ) ;
#101 = AXIS2_PLACEMENT_3D ( 'NONE', #76, #29, #74 ) ;
#102 = DIRECTION ( 'NONE',  ( -1.000000000000000000, 0.000000000000000000, 0.000000000000000000 ) ) ;
#103 = CARTESIAN_POINT ( 'NONE',  ( 2.600000000000000089, 3.184081677783118191E-16, 253.0000000000000000 ) ) ;
#104 = CC_DESIGN_APPROVAL ( #244, ( #28 ) ) ;
#105 = ORIENTED_EDGE ( 'NONE', *, *, #132, .T. ) ;
#106 = DIRECTION ( 'NONE',  ( 0.000000000000000000, 0.000000000000000000, 1.000000000000000000 ) ) ;
#107 = DIRECTION ( 'NONE',  ( -0.000000000000000000, -0.000000000000000000, -1.000000000000000000 ) ) ;
#108 = VERTEX_POINT ( 'NONE', #52 ) ;
#109 = EDGE_CURVE ( 'NONE', #221, #154, #211, .T. ) ;
#110 = FACE_OUTER_BOUND ( 'NONE', #71, .T. ) ;
#111 = DIRECTION ( 'NONE',  ( 0.000000000000000000, 0.000000000000000000, 1.000000000000000000 ) ) ;
#112 = DIRECTION ( 'NONE',  ( -0.000000000000000000, -0.000000000000000000, -1.000000000000000000 ) ) ;
#113 = DATE_AND_TIME ( #33, #38 ) ;
#114 = LINE ( 'NONE', #13, #137 ) ;
#115 = DIRECTION ( 'NONE',  ( 1.000000000000000000, 0.000000000000000000, 0.000000000000000000 ) ) ;
#116 = CIRCLE ( 'NONE', #142, 5.000000000000000000 ) ;
#117 = CC_DESIGN_PERSON_AND_ORGANIZATION_ASSIGNMENT ( #177, #219, ( #160 ) ) ;
#118 = DESIGN_CONTEXT ( 'detailed design', #47, 'design' ) ;
#119 = COORDINATED_UNIVERSAL_TIME_OFFSET ( 1, 0, .AHEAD. ) ;
#120 = AXIS2_PLACEMENT_3D ( 'NONE', #23, #1, #102 ) ;
#121 = APPROVAL_STATUS ( 'not_yet_approved' ) ;
#122 = EDGE_CURVE ( 'NONE', #91, #228, #114, .T. ) ;
#123 = LOCAL_TIME ( 19, 45, 22.00000000000000000, #119 ) ;
#124 = EDGE_CURVE ( 'NONE', #108, #154, #194, .T. ) ;
#125 = EDGE_LOOP ( 'NONE', ( #53, #84 ) ) ;
#126 = DIRECTION ( 'NONE',  ( 1.000000000000000000, 0.000000000000000000, 0.000000000000000000 ) ) ;
#127 = ORIENTED_EDGE ( 'NONE', *, *, #223, .T. ) ;
#128 = CYLINDRICAL_SURFACE ( 'NONE', #120, 5.000000000000000000 ) ;
#129 = CARTESIAN_POINT ( 'NONE',  ( -5.000000000000000000, 0.000000000000000000, 0.000000000000000000 ) ) ;
#130 = DIRECTION ( 'NONE',  ( 1.000000000000000000, 0.000000000000000000, 0.000000000000000000 ) ) ;
#131 = EDGE_LOOP ( 'NONE', ( #238, #22, #190, #133 ) ) ;
#132 = EDGE_CURVE ( 'NONE', #224, #186, #43, .T. ) ;
#133 = ORIENTED_EDGE ( 'NONE', *, *, #59, .T. ) ;
#134 = PERSON_AND_ORGANIZATION_ROLE ( 'design_owner' ) ;
#135 = DIRECTION ( 'NONE',  ( 1.000000000000000000, 0.000000000000000000, -0.000000000000000000 ) ) ;
#136 = MECHANICAL_CONTEXT ( 'NONE', #216, 'mechanical' ) ;
#137 = VECTOR ( 'NONE', #95, 1000.000000000000000 ) ;
#138 = SHAPE_DEFINITION_REPRESENTATION ( #141, #215 ) ;
#139 = APPROVAL_DATE_TIME ( #81, #244 ) ;
#140 = CC_DESIGN_PERSON_AND_ORGANIZATION_ASSIGNMENT ( #15, #134, ( #252 ) ) ;
#141 = PRODUCT_DEFINITION_SHAPE ( 'NONE', 'NONE',  #239 ) ;
#142 = AXIS2_PLACEMENT_3D ( 'NONE', #226, #3, #182 ) ;
#143 = CARTESIAN_POINT ( 'NONE',  ( -2.600000000000000089, 0.000000000000000000, 3.000000000000000000 ) ) ;
#144 = EDGE_LOOP ( 'NONE', ( #201, #171, #65, #149 ) ) ;
#145 = DIRECTION ( 'NONE',  ( 1.000000000000000000, 0.000000000000000000, 0.000000000000000000 ) ) ;
#146 = CARTESIAN_POINT ( 'NONE',  ( 0.000000000000000000, 0.000000000000000000, 253.0000000000000000 ) ) ;
#147 = LOCAL_TIME ( 19, 45, 22.00000000000000000, #153 ) ;
#148 = ORIENTED_EDGE ( 'NONE', *, *, #122, .F. ) ;
#149 = ORIENTED_EDGE ( 'NONE', *, *, #109, .F. ) ;
#150 = CARTESIAN_POINT ( 'NONE',  ( -5.000000000000000000, 0.000000000000000000, 3.000000000000000000 ) ) ;
#151 = ADVANCED_FACE ( 'NONE', ( #85 ), #20, .T. ) ;
#152 = CARTESIAN_POINT ( 'NONE',  ( 0.000000000000000000, 0.000000000000000000, 253.0000000000000000 ) ) ;
#153 = COORDINATED_UNIVERSAL_TIME_OFFSET ( 1, 0, .AHEAD. ) ;
#154 = VERTEX_POINT ( 'NONE', #143 ) ;
#155 = CC_DESIGN_DATE_AND_TIME_ASSIGNMENT ( #100, #62, ( #28 ) ) ;
#156 = LOCAL_TIME ( 19, 45, 22.00000000000000000, #159 ) ;
#157 = CALENDAR_DATE ( 2022, 7, 7 ) ;
#158 = ADVANCED_FACE ( 'NONE', ( #181 ), #128, .T. ) ;
#159 = COORDINATED_UNIVERSAL_TIME_OFFSET ( 1, 0, .AHEAD. ) ;
#160 = PRODUCT_DEFINITION_FORMATION_WITH_SPECIFIED_SOURCE ( 'LIBOVOLNÝ', '', #252, .NOT_KNOWN. ) ;
#161 = DIRECTION ( 'NONE',  ( -1.000000000000000000, 0.000000000000000000, 0.000000000000000000 ) ) ;
#162 = CARTESIAN_POINT ( 'NONE',  ( 0.000000000000000000, 0.000000000000000000, 3.000000000000000000 ) ) ;
#163 = CYLINDRICAL_SURFACE ( 'NONE', #82, 2.600000000000000089 ) ;
#164 = EDGE_LOOP ( 'NONE', ( #197, #105, #27, #148 ) ) ;
#165 = CARTESIAN_POINT ( 'NONE',  ( 0.000000000000000000, 0.000000000000000000, 3.000000000000000000 ) ) ;
#166 = FACE_OUTER_BOUND ( 'NONE', #125, .T. ) ;
#167 = EDGE_CURVE ( 'NONE', #221, #205, #173, .T. ) ;
#168 = DIRECTION ( 'NONE',  ( 0.000000000000000000, 0.000000000000000000, 1.000000000000000000 ) ) ;
#169 = CARTESIAN_POINT ( 'NONE',  ( 0.000000000000000000, 0.000000000000000000, 3.000000000000000000 ) ) ;
#170 = CARTESIAN_POINT ( 'NONE',  ( 0.000000000000000000, 0.000000000000000000, 0.000000000000000000 ) ) ;
#171 = ORIENTED_EDGE ( 'NONE', *, *, #217, .T. ) ;
#172 = AXIS2_PLACEMENT_3D ( 'NONE', #30, #8, #130 ) ;
#173 = CIRCLE ( 'NONE', #58, 2.600000000000000089 ) ;
#174 = APPROVAL_ROLE ( '' ) ;
#175 = CC_DESIGN_DATE_AND_TIME_ASSIGNMENT ( #31, #199, ( #239 ) ) ;
#176 = DATE_AND_TIME ( #232, #123 ) ;
#177 = PERSON_AND_ORGANIZATION ( #16, #39 ) ;
#178 = APPROVAL_PERSON_ORGANIZATION ( #21, #195, #220 ) ;
#179 = DIRECTION ( 'NONE',  ( -0.000000000000000000, -0.000000000000000000, -1.000000000000000000 ) ) ;
#180 = AXIS2_PLACEMENT_3D ( 'NONE', #165, #10, #240 ) ;
#181 = FACE_OUTER_BOUND ( 'NONE', #164, .T. ) ;
#182 = DIRECTION ( 'NONE',  ( 1.000000000000000000, 0.000000000000000000, 0.000000000000000000 ) ) ;
#183 = EDGE_CURVE ( 'NONE', #186, #228, #86, .T. ) ;
#184 = CARTESIAN_POINT ( 'NONE',  ( 5.000000000000000000, 6.123233995736766282E-16, 0.000000000000000000 ) ) ;
#185 = DIRECTION ( 'NONE',  ( -1.000000000000000000, 0.000000000000000000, 0.000000000000000000 ) ) ;
#186 = VERTEX_POINT ( 'NONE', #184 ) ;
#187 = CC_DESIGN_PERSON_AND_ORGANIZATION_ASSIGNMENT ( #98, #245, ( #239 ) ) ;
#188 = ORIENTED_EDGE ( 'NONE', *, *, #18, .T. ) ;
#189 = DIRECTION ( 'NONE',  ( 1.000000000000000000, 0.000000000000000000, -0.000000000000000000 ) ) ;
#190 = ORIENTED_EDGE ( 'NONE', *, *, #109, .T. ) ;
#191 = DIRECTION ( 'NONE',  ( 0.000000000000000000, 0.000000000000000000, 1.000000000000000000 ) ) ;
#192 = APPROVAL_DATE_TIME ( #113, #63 ) ;
#193 = APPROVAL_STATUS ( 'not_yet_approved' ) ;
#194 = CIRCLE ( 'NONE', #200, 2.600000000000000089 ) ;
#195 = APPROVAL ( #121, 'NEURÈENÝ' ) ;
#196 = AXIS2_PLACEMENT_3D ( 'NONE', #170, #54, #115 ) ;
#197 = ORIENTED_EDGE ( 'NONE', *, *, #7, .F. ) ;
#198 = CARTESIAN_POINT ( 'NONE',  ( 5.000000000000000000, 6.123233995736766282E-16, 3.000000000000000000 ) ) ;
#199 = DATE_TIME_ROLE ( 'creation_date' ) ;
#200 = AXIS2_PLACEMENT_3D ( 'NONE', #169, #191, #255 ) ;
#201 = ORIENTED_EDGE ( 'NONE', *, *, #18, .F. ) ;
#202 = CARTESIAN_POINT ( 'NONE',  ( 2.600000000000000089, 3.184081677783118191E-16, 253.0000000000000000 ) ) ;
#203 = DIRECTION ( 'NONE',  ( -0.000000000000000000, -0.000000000000000000, -1.000000000000000000 ) ) ;
#204 = CC_DESIGN_APPROVAL ( #63, ( #239 ) ) ;
#205 = VERTEX_POINT ( 'NONE', #202 ) ;
#206 = EDGE_CURVE ( 'NONE', #91, #224, #41, .T. ) ;
#207 = CYLINDRICAL_SURFACE ( 'NONE', #212, 2.600000000000000089 ) ;
#208 = CARTESIAN_POINT ( 'NONE',  ( 0.000000000000000000, 0.000000000000000000, 253.0000000000000000 ) ) ;
#209 = DIRECTION ( 'NONE',  ( 1.000000000000000000, 0.000000000000000000, -0.000000000000000000 ) ) ;
#210 = CALENDAR_DATE ( 2022, 7, 7 ) ;
#211 = LINE ( 'NONE', #32, #242 ) ;
#212 = AXIS2_PLACEMENT_3D ( 'NONE', #208, #72, #248 ) ;
#213 = COORDINATED_UNIVERSAL_TIME_OFFSET ( 1, 0, .AHEAD. ) ;
#214 = APPROVAL_PERSON_ORGANIZATION ( #36, #244, #174 ) ;
#215 = ADVANCED_BREP_SHAPE_REPRESENTATION ( '596c', ( #70, #196 ), #92 ) ;
#216 = APPLICATION_CONTEXT ( 'configuration controlled 3d designs of mechanical parts and assemblies' ) ;
#217 = EDGE_CURVE ( 'NONE', #205, #108, #225, .T. ) ;
#218 = AXIS2_PLACEMENT_3D ( 'NONE', #73, #168, #209 ) ;
#219 = PERSON_AND_ORGANIZATION_ROLE ( 'creator' ) ;
#220 = APPROVAL_ROLE ( '' ) ;
#221 = VERTEX_POINT ( 'NONE', #69 ) ;
#222 = DIRECTION ( 'NONE',  ( 0.000000000000000000, 0.000000000000000000, 1.000000000000000000 ) ) ;
#223 = EDGE_CURVE ( 'NONE', #228, #186, #116, .T. ) ;
#224 = VERTEX_POINT ( 'NONE', #49 ) ;
#225 = LINE ( 'NONE', #103, #78 ) ;
#226 = CARTESIAN_POINT ( 'NONE',  ( 0.000000000000000000, 0.000000000000000000, 0.000000000000000000 ) ) ;
#227 = PLANE ( 'NONE',  #26 ) ;
#228 = VERTEX_POINT ( 'NONE', #129 ) ;
#229 = PLANE ( 'NONE',  #61 ) ;
#230 = AXIS2_PLACEMENT_3D ( 'NONE', #46, #67, #145 ) ;
#231 = APPROVAL_STATUS ( 'not_yet_approved' ) ;
#232 = CALENDAR_DATE ( 2022, 7, 7 ) ;
#233 = VECTOR ( 'NONE', #179, 1000.000000000000000 ) ;
#234 = APPROVAL_DATE_TIME ( #176, #195 ) ;
#235 = DIRECTION ( 'NONE',  ( -0.000000000000000000, -0.000000000000000000, -1.000000000000000000 ) ) ;
#236 = DIRECTION ( 'NONE',  ( 1.000000000000000000, 0.000000000000000000, 0.000000000000000000 ) ) ;
#237 =( NAMED_UNIT ( * ) SI_UNIT ( $, .STERADIAN. ) SOLID_ANGLE_UNIT ( ) );
#238 = ORIENTED_EDGE ( 'NONE', *, *, #217, .F. ) ;
#239 = PRODUCT_DEFINITION ( 'NEZNÁMÝ', '', #160, #118 ) ;
#240 = DIRECTION ( 'NONE',  ( 1.000000000000000000, 0.000000000000000000, 0.000000000000000000 ) ) ;
#241 = EDGE_LOOP ( 'NONE', ( #48, #97, #243, #127 ) ) ;
#242 = VECTOR ( 'NONE', #112, 1000.000000000000000 ) ;
#243 = ORIENTED_EDGE ( 'NONE', *, *, #122, .T. ) ;
#244 = APPROVAL ( #193, 'NEURÈENÝ' ) ;
#245 = PERSON_AND_ORGANIZATION_ROLE ( 'creator' ) ;
#246 = PLANE ( 'NONE',  #218 ) ;
#247 = APPLICATION_PROTOCOL_DEFINITION ( 'international standard', 'config_control_design', 1994, #216 ) ;
#248 = DIRECTION ( 'NONE',  ( -1.000000000000000000, 0.000000000000000000, 0.000000000000000000 ) ) ;
#249 = LOCAL_TIME ( 19, 45, 22.00000000000000000, #80 ) ;
#250 = PERSON_AND_ORGANIZATION_ROLE ( 'classification_officer' ) ;
#251 = PERSON_AND_ORGANIZATION ( #16, #39 ) ;
#252 = PRODUCT ( '596c', '596c', '', ( #136 ) ) ;
#253 = AXIS2_PLACEMENT_3D ( 'NONE', #162, #235, #161 ) ;
#254 = ADVANCED_FACE ( 'NONE', ( #89 ), #163, .T. ) ;
#255 = DIRECTION ( 'NONE',  ( 1.000000000000000000, 0.000000000000000000, 0.000000000000000000 ) ) ;
ENDSEC;
END-ISO-10303-21;
