ISO-10303-21;
HEADER;
FILE_DESCRIPTION (( 'STEP AP203' ),
    '1' );
FILE_NAME ('b070.STEP',
    '2023-02-13T13:13:21',
    ( '' ),
    ( '' ),
    'SwSTEP 2.0',
    'SolidWorks 2019',
    '' );
FILE_SCHEMA (( 'CONFIG_CONTROL_DESIGN' ));
ENDSEC;

DATA;
#1 = DIRECTION ( 'NONE',  ( 0.000000000000000000, 0.000000000000000000, 1.000000000000000000 ) ) ;
#2 = EDGE_LOOP ( 'NONE', ( #178, #127, #110, #10 ) ) ;
#3 = DATE_AND_TIME ( #166, #65 ) ;
#4 = PERSON_AND_ORGANIZATION_ROLE ( 'design_owner' ) ;
#5 = EDGE_CURVE ( 'NONE', #218, #62, #223, .T. ) ;
#6 = DIRECTION ( 'NONE',  ( 0.000000000000000000, 0.000000000000000000, 1.000000000000000000 ) ) ;
#7 = CARTESIAN_POINT ( 'NONE',  ( 0.000000000000000000, 0.000000000000000000, 250.0000000000000000 ) ) ;
#8 = LOCAL_TIME ( 14, 13, 21.00000000000000000, #89 ) ;
#9 = PERSON_AND_ORGANIZATION ( #204, #42 ) ;
#10 = ORIENTED_EDGE ( 'NONE', *, *, #95, .T. ) ;
#11 = ADVANCED_FACE ( 'NONE', ( #250 ), #67, .T. ) ;
#12 = VECTOR ( 'NONE', #32, 1000.000000000000000 ) ;
#13 = CC_DESIGN_PERSON_AND_ORGANIZATION_ASSIGNMENT ( #50, #4, ( #22 ) ) ;
#14 = DIRECTION ( 'NONE',  ( 1.000000000000000000, 0.000000000000000000, -0.000000000000000000 ) ) ;
#15 = APPLICATION_CONTEXT ( 'configuration controlled 3d designs of mechanical parts and assemblies' ) ;
#16 = DIRECTION ( 'NONE',  ( 0.000000000000000000, 0.000000000000000000, 1.000000000000000000 ) ) ;
#17 = CIRCLE ( 'NONE', #55, 5.250000000000000000 ) ;
#18 = DIRECTION ( 'NONE',  ( 0.000000000000000000, 0.000000000000000000, 1.000000000000000000 ) ) ;
#19 = AXIS2_PLACEMENT_3D ( 'NONE', #232, #108, #248 ) ;
#20 = CARTESIAN_POINT ( 'NONE',  ( -8.000000000000000000, 0.000000000000000000, 0.000000000000000000 ) ) ;
#21 = CARTESIAN_POINT ( 'NONE',  ( 8.000000000000000000, 9.797174393178825657E-16, 5.000000000000000000 ) ) ;
#22 = PRODUCT ( 'b070', 'b070', '', ( #48 ) ) ;
#23 = VERTEX_POINT ( 'NONE', #96 ) ;
#24 = DIRECTION ( 'NONE',  ( -0.000000000000000000, -0.000000000000000000, -1.000000000000000000 ) ) ;
#25 = CARTESIAN_POINT ( 'NONE',  ( 0.000000000000000000, 0.000000000000000000, 250.0000000000000000 ) ) ;
#26 = CYLINDRICAL_SURFACE ( 'NONE', #19, 5.250000000000000000 ) ;
#27 = PERSON_AND_ORGANIZATION ( #204, #42 ) ;
#28 = CARTESIAN_POINT ( 'NONE',  ( 0.000000000000000000, 0.000000000000000000, 0.000000000000000000 ) ) ;
#29 = DIRECTION ( 'NONE',  ( -0.000000000000000000, -0.000000000000000000, -1.000000000000000000 ) ) ;
#30 = LOCAL_TIME ( 14, 13, 21.00000000000000000, #252 ) ;
#31 = CIRCLE ( 'NONE', #180, 8.000000000000000000 ) ;
#32 = DIRECTION ( 'NONE',  ( -0.000000000000000000, -0.000000000000000000, -1.000000000000000000 ) ) ;
#33 = DATE_AND_TIME ( #114, #41 ) ;
#34 = CLOSED_SHELL ( 'NONE', ( #44, #11, #59, #116, #130, #251, #118 ) ) ;
#35 = EDGE_CURVE ( 'NONE', #221, #184, #231, .T. ) ;
#36 = ORIENTED_EDGE ( 'NONE', *, *, #245, .T. ) ;
#37 = CC_DESIGN_PERSON_AND_ORGANIZATION_ASSIGNMENT ( #54, #171, ( #170 ) ) ;
#38 = EDGE_LOOP ( 'NONE', ( #247, #255, #150, #52 ) ) ;
#39 = DESIGN_CONTEXT ( 'detailed design', #136, 'design' ) ;
#40 = ORIENTED_EDGE ( 'NONE', *, *, #5, .T. ) ;
#41 = LOCAL_TIME ( 14, 13, 21.00000000000000000, #234 ) ;
#42 = ORGANIZATION ( 'NEURÈENÝ', 'NEURÈENÝ', '' ) ;
#43 = PERSON_AND_ORGANIZATION_ROLE ( 'creator' ) ;
#44 = ADVANCED_FACE ( 'NONE', ( #143 ), #144, .T. ) ;
#45 = DIRECTION ( 'NONE',  ( -1.000000000000000000, 0.000000000000000000, 0.000000000000000000 ) ) ;
#46 = PLANE ( 'NONE',  #47 ) ;
#47 = AXIS2_PLACEMENT_3D ( 'NONE', #187, #6, #229 ) ;
#48 = MECHANICAL_CONTEXT ( 'NONE', #15, 'mechanical' ) ;
#49 = FACE_OUTER_BOUND ( 'NONE', #139, .T. ) ;
#50 = PERSON_AND_ORGANIZATION ( #204, #42 ) ;
#51 = ADVANCED_BREP_SHAPE_REPRESENTATION ( 'b070', ( #126, #154 ), #109 ) ;
#52 = ORIENTED_EDGE ( 'NONE', *, *, #175, .F. ) ;
#53 = CC_DESIGN_DATE_AND_TIME_ASSIGNMENT ( #58, #216, ( #170 ) ) ;
#54 = PERSON_AND_ORGANIZATION ( #204, #42 ) ;
#55 = AXIS2_PLACEMENT_3D ( 'NONE', #7, #151, #147 ) ;
#56 = COORDINATED_UNIVERSAL_TIME_OFFSET ( 1, 0, .AHEAD. ) ;
#57 = DIRECTION ( 'NONE',  ( 1.000000000000000000, 0.000000000000000000, 0.000000000000000000 ) ) ;
#58 = DATE_AND_TIME ( #152, #30 ) ;
#59 = ADVANCED_FACE ( 'NONE', ( #122 ), #206, .T. ) ;
#60 = AXIS2_PLACEMENT_3D ( 'NONE', #28, #106, #90 ) ;
#61 = APPROVAL ( #135, 'NEURÈENÝ' ) ;
#62 = VERTEX_POINT ( 'NONE', #92 ) ;
#63 = ORIENTED_EDGE ( 'NONE', *, *, #64, .T. ) ;
#64 = EDGE_CURVE ( 'NONE', #221, #200, #17, .T. ) ;
#65 = LOCAL_TIME ( 14, 13, 21.00000000000000000, #177 ) ;
#66 = CARTESIAN_POINT ( 'NONE',  ( -5.250000000000000000, 0.000000000000000000, 250.0000000000000000 ) ) ;
#67 = CYLINDRICAL_SURFACE ( 'NONE', #205, 8.000000000000000000 ) ;
#68 = ORIENTED_EDGE ( 'NONE', *, *, #141, .T. ) ;
#69 =( NAMED_UNIT ( * ) SI_UNIT ( $, .STERADIAN. ) SOLID_ANGLE_UNIT ( ) );
#70 = AXIS2_PLACEMENT_3D ( 'NONE', #25, #111, #57 ) ;
#71 = DATE_AND_TIME ( #249, #8 ) ;
#72 = APPROVAL ( #243, 'NEURÈENÝ' ) ;
#73 = DIRECTION ( 'NONE',  ( -0.000000000000000000, -0.000000000000000000, -1.000000000000000000 ) ) ;
#74 = FACE_OUTER_BOUND ( 'NONE', #2, .T. ) ;
#75 = CC_DESIGN_APPROVAL ( #72, ( #195 ) ) ;
#76 = FACE_OUTER_BOUND ( 'NONE', #182, .T. ) ;
#77 = CC_DESIGN_SECURITY_CLASSIFICATION ( #170, ( #195 ) ) ;
#78 = PERSON_AND_ORGANIZATION ( #204, #42 ) ;
#79 = EDGE_CURVE ( 'NONE', #200, #221, #160, .T. ) ;
#80 = EDGE_LOOP ( 'NONE', ( #240, #213 ) ) ;
#81 = UNCERTAINTY_MEASURE_WITH_UNIT (LENGTH_MEASURE( 1.000000000000000082E-05 ), #228, 'distance_accuracy_value', 'NONE');
#82 = CARTESIAN_POINT ( 'NONE',  ( -8.000000000000000000, 0.000000000000000000, 5.000000000000000000 ) ) ;
#83 = ORIENTED_EDGE ( 'NONE', *, *, #5, .F. ) ;
#84 = FACE_OUTER_BOUND ( 'NONE', #87, .T. ) ;
#85 = CIRCLE ( 'NONE', #254, 8.000000000000000000 ) ;
#86 = AXIS2_PLACEMENT_3D ( 'NONE', #219, #199, #14 ) ;
#87 = EDGE_LOOP ( 'NONE', ( #83, #117 ) ) ;
#88 = CARTESIAN_POINT ( 'NONE',  ( 5.250000000000000000, 6.429395695523604153E-16, 250.0000000000000000 ) ) ;
#89 = COORDINATED_UNIVERSAL_TIME_OFFSET ( 1, 0, .AHEAD. ) ;
#90 = DIRECTION ( 'NONE',  ( 1.000000000000000000, 0.000000000000000000, 0.000000000000000000 ) ) ;
#91 = DATE_TIME_ROLE ( 'creation_date' ) ;
#92 = CARTESIAN_POINT ( 'NONE',  ( 8.000000000000000000, 9.797174393178825657E-16, 0.000000000000000000 ) ) ;
#93 = DIRECTION ( 'NONE',  ( -1.000000000000000000, 0.000000000000000000, 0.000000000000000000 ) ) ;
#94 = DIRECTION ( 'NONE',  ( 1.000000000000000000, 0.000000000000000000, 0.000000000000000000 ) ) ;
#95 = EDGE_CURVE ( 'NONE', #23, #184, #159, .T. ) ;
#96 = CARTESIAN_POINT ( 'NONE',  ( -5.250000000000000000, 0.000000000000000000, 5.000000000000000000 ) ) ;
#97 = DIRECTION ( 'NONE',  ( 1.000000000000000000, 0.000000000000000000, 0.000000000000000000 ) ) ;
#98 = CALENDAR_DATE ( 2023, 13, 2 ) ;
#99 = PRODUCT_DEFINITION_SHAPE ( 'NONE', 'NONE',  #230 ) ;
#100 = CC_DESIGN_PERSON_AND_ORGANIZATION_ASSIGNMENT ( #27, #43, ( #195 ) ) ;
#101 = DIRECTION ( 'NONE',  ( 1.000000000000000000, 0.000000000000000000, 0.000000000000000000 ) ) ;
#102 = DIRECTION ( 'NONE',  ( 1.000000000000000000, 0.000000000000000000, 0.000000000000000000 ) ) ;
#103 = AXIS2_PLACEMENT_3D ( 'NONE', #131, #214, #113 ) ;
#104 = ORIENTED_EDGE ( 'NONE', *, *, #245, .F. ) ;
#105 = CARTESIAN_POINT ( 'NONE',  ( 5.250000000000000000, 6.429395695523604153E-16, 250.0000000000000000 ) ) ;
#106 = DIRECTION ( 'NONE',  ( 0.000000000000000000, 0.000000000000000000, 1.000000000000000000 ) ) ;
#107 = ORIENTED_EDGE ( 'NONE', *, *, #235, .F. ) ;
#108 = DIRECTION ( 'NONE',  ( -0.000000000000000000, -0.000000000000000000, -1.000000000000000000 ) ) ;
#109 =( GEOMETRIC_REPRESENTATION_CONTEXT ( 3 ) GLOBAL_UNCERTAINTY_ASSIGNED_CONTEXT ( ( #81 ) ) GLOBAL_UNIT_ASSIGNED_CONTEXT ( ( #228, #128, #69 ) ) REPRESENTATION_CONTEXT ( 'NONE', 'WORKASPACE' ) );
#110 = ORIENTED_EDGE ( 'NONE', *, *, #175, .T. ) ;
#111 = DIRECTION ( 'NONE',  ( 0.000000000000000000, 0.000000000000000000, 1.000000000000000000 ) ) ;
#112 = APPLICATION_PROTOCOL_DEFINITION ( 'international standard', 'config_control_design', 1994, #15 ) ;
#113 = DIRECTION ( 'NONE',  ( 1.000000000000000000, 0.000000000000000000, 0.000000000000000000 ) ) ;
#114 = CALENDAR_DATE ( 2023, 13, 2 ) ;
#115 = APPROVAL_DATE_TIME ( #33, #61 ) ;
#116 = ADVANCED_FACE ( 'NONE', ( #172, #76 ), #46, .T. ) ;
#117 = ORIENTED_EDGE ( 'NONE', *, *, #211, .F. ) ;
#118 = ADVANCED_FACE ( 'NONE', ( #49 ), #209, .T. ) ;
#119 = EDGE_LOOP ( 'NONE', ( #107, #181, #167, #196 ) ) ;
#120 = CARTESIAN_POINT ( 'NONE',  ( 5.250000000000000000, 6.429395695523604153E-16, 5.000000000000000000 ) ) ;
#121 = AXIS2_PLACEMENT_3D ( 'NONE', #253, #18, #101 ) ;
#122 = FACE_OUTER_BOUND ( 'NONE', #129, .T. ) ;
#123 = CC_DESIGN_PERSON_AND_ORGANIZATION_ASSIGNMENT ( #78, #155, ( #195 ) ) ;
#124 = CARTESIAN_POINT ( 'NONE',  ( 0.000000000000000000, 0.000000000000000000, 5.000000000000000000 ) ) ;
#125 = APPROVAL_STATUS ( 'not_yet_approved' ) ;
#126 = MANIFOLD_SOLID_BREP ( 'Pøidat vysunutím3', #34 ) ;
#127 = ORIENTED_EDGE ( 'NONE', *, *, #79, .F. ) ;
#128 =( NAMED_UNIT ( * ) PLANE_ANGLE_UNIT ( ) SI_UNIT ( $, .RADIAN. ) );
#129 = EDGE_LOOP ( 'NONE', ( #208, #104, #68, #40 ) ) ;
#130 = ADVANCED_FACE ( 'NONE', ( #84 ), #137, .F. ) ;
#131 = CARTESIAN_POINT ( 'NONE',  ( 0.000000000000000000, 0.000000000000000000, 5.000000000000000000 ) ) ;
#132 = APPROVAL_ROLE ( '' ) ;
#133 = CARTESIAN_POINT ( 'NONE',  ( -8.000000000000000000, 0.000000000000000000, 5.000000000000000000 ) ) ;
#134 = CIRCLE ( 'NONE', #158, 8.000000000000000000 ) ;
#135 = APPROVAL_STATUS ( 'not_yet_approved' ) ;
#136 = APPLICATION_CONTEXT ( 'configuration controlled 3d designs of mechanical parts and assemblies' ) ;
#137 = PLANE ( 'NONE',  #86 ) ;
#138 = EDGE_CURVE ( 'NONE', #184, #23, #227, .T. ) ;
#139 = EDGE_LOOP ( 'NONE', ( #157, #63 ) ) ;
#140 = CARTESIAN_POINT ( 'NONE',  ( -5.250000000000000000, 0.000000000000000000, 250.0000000000000000 ) ) ;
#141 = EDGE_CURVE ( 'NONE', #169, #218, #176, .T. ) ;
#142 = LINE ( 'NONE', #21, #145 ) ;
#143 = FACE_OUTER_BOUND ( 'NONE', #38, .T. ) ;
#144 = CYLINDRICAL_SURFACE ( 'NONE', #173, 5.250000000000000000 ) ;
#145 = VECTOR ( 'NONE', #29, 1000.000000000000000 ) ;
#146 = CARTESIAN_POINT ( 'NONE',  ( 0.000000000000000000, 0.000000000000000000, 5.000000000000000000 ) ) ;
#147 = DIRECTION ( 'NONE',  ( 1.000000000000000000, 0.000000000000000000, 0.000000000000000000 ) ) ;
#148 = VERTEX_POINT ( 'NONE', #236 ) ;
#149 = APPLICATION_PROTOCOL_DEFINITION ( 'international standard', 'config_control_design', 1994, #136 ) ;
#150 = ORIENTED_EDGE ( 'NONE', *, *, #138, .T. ) ;
#151 = DIRECTION ( 'NONE',  ( 0.000000000000000000, 0.000000000000000000, 1.000000000000000000 ) ) ;
#152 = CALENDAR_DATE ( 2023, 13, 2 ) ;
#153 = DATE_AND_TIME ( #98, #226 ) ;
#154 = AXIS2_PLACEMENT_3D ( 'NONE', #189, #207, #97 ) ;
#155 = PERSON_AND_ORGANIZATION_ROLE ( 'design_supplier' ) ;
#156 = DIRECTION ( 'NONE',  ( 1.000000000000000000, 0.000000000000000000, -0.000000000000000000 ) ) ;
#157 = ORIENTED_EDGE ( 'NONE', *, *, #79, .T. ) ;
#158 = AXIS2_PLACEMENT_3D ( 'NONE', #242, #1, #102 ) ;
#159 = CIRCLE ( 'NONE', #103, 5.250000000000000000 ) ;
#160 = CIRCLE ( 'NONE', #70, 5.250000000000000000 ) ;
#161 = PERSON_AND_ORGANIZATION_ROLE ( 'creator' ) ;
#162 = DIRECTION ( 'NONE',  ( 1.000000000000000000, 0.000000000000000000, 0.000000000000000000 ) ) ;
#163 = DIRECTION ( 'NONE',  ( -0.000000000000000000, -0.000000000000000000, -1.000000000000000000 ) ) ;
#164 = CC_DESIGN_APPROVAL ( #61, ( #170 ) ) ;
#165 = PERSON_AND_ORGANIZATION ( #204, #42 ) ;
#166 = CALENDAR_DATE ( 2023, 13, 2 ) ;
#167 = ORIENTED_EDGE ( 'NONE', *, *, #211, .T. ) ;
#168 = APPROVAL_ROLE ( '' ) ;
#169 = VERTEX_POINT ( 'NONE', #133 ) ;
#170 = SECURITY_CLASSIFICATION ( '', '', #174 ) ;
#171 = PERSON_AND_ORGANIZATION_ROLE ( 'classification_officer' ) ;
#172 = FACE_BOUND ( 'NONE', #80, .T. ) ;
#173 = AXIS2_PLACEMENT_3D ( 'NONE', #225, #188, #45 ) ;
#174 = SECURITY_CLASSIFICATION_LEVEL ( 'unclassified' ) ;
#175 = EDGE_CURVE ( 'NONE', #200, #23, #215, .T. ) ;
#176 = LINE ( 'NONE', #82, #12 ) ;
#177 = COORDINATED_UNIVERSAL_TIME_OFFSET ( 1, 0, .AHEAD. ) ;
#178 = ORIENTED_EDGE ( 'NONE', *, *, #35, .F. ) ;
#179 = APPROVAL_PERSON_ORGANIZATION ( #165, #202, #210 ) ;
#180 = AXIS2_PLACEMENT_3D ( 'NONE', #193, #185, #94 ) ;
#181 = ORIENTED_EDGE ( 'NONE', *, *, #238, .T. ) ;
#182 = EDGE_LOOP ( 'NONE', ( #36, #246 ) ) ;
#183 = APPROVAL_PERSON_ORGANIZATION ( #9, #72, #168 ) ;
#184 = VERTEX_POINT ( 'NONE', #120 ) ;
#185 = DIRECTION ( 'NONE',  ( 0.000000000000000000, 0.000000000000000000, 1.000000000000000000 ) ) ;
#186 = DIRECTION ( 'NONE',  ( -1.000000000000000000, 0.000000000000000000, 0.000000000000000000 ) ) ;
#187 = CARTESIAN_POINT ( 'NONE',  ( 0.000000000000000000, 0.000000000000000000, 5.000000000000000000 ) ) ;
#188 = DIRECTION ( 'NONE',  ( -0.000000000000000000, -0.000000000000000000, -1.000000000000000000 ) ) ;
#189 = CARTESIAN_POINT ( 'NONE',  ( 0.000000000000000000, 0.000000000000000000, 0.000000000000000000 ) ) ;
#190 = CC_DESIGN_APPROVAL ( #202, ( #230 ) ) ;
#191 = CC_DESIGN_DATE_AND_TIME_ASSIGNMENT ( #3, #91, ( #230 ) ) ;
#192 = APPROVAL_DATE_TIME ( #153, #202 ) ;
#193 = CARTESIAN_POINT ( 'NONE',  ( 0.000000000000000000, 0.000000000000000000, 5.000000000000000000 ) ) ;
#194 = SHAPE_DEFINITION_REPRESENTATION ( #99, #51 ) ;
#195 = PRODUCT_DEFINITION_FORMATION_WITH_SPECIFIED_SOURCE ( 'LIBOVOLNÝ', '', #22, .NOT_KNOWN. ) ;
#196 = ORIENTED_EDGE ( 'NONE', *, *, #141, .F. ) ;
#197 = AXIS2_PLACEMENT_3D ( 'NONE', #198, #16, #156 ) ;
#198 = CARTESIAN_POINT ( 'NONE',  ( 0.000000000000000000, 0.000000000000000000, 250.0000000000000000 ) ) ;
#199 = DIRECTION ( 'NONE',  ( 0.000000000000000000, 0.000000000000000000, 1.000000000000000000 ) ) ;
#200 = VERTEX_POINT ( 'NONE', #140 ) ;
#201 = PERSON_AND_ORGANIZATION ( #204, #42 ) ;
#202 = APPROVAL ( #125, 'NEURÈENÝ' ) ;
#203 = VECTOR ( 'NONE', #244, 1000.000000000000000 ) ;
#204 = PERSON ( 'NEURÈENÝ', 'NEURÈENÝ', 'NEURÈENÝ', ('NEURÈENÝ'), ('NEURÈENÝ'), ('NEURÈENÝ') ) ;
#205 = AXIS2_PLACEMENT_3D ( 'NONE', #146, #73, #93 ) ;
#206 = CYLINDRICAL_SURFACE ( 'NONE', #217, 8.000000000000000000 ) ;
#207 = DIRECTION ( 'NONE',  ( 0.000000000000000000, 0.000000000000000000, 1.000000000000000000 ) ) ;
#208 = ORIENTED_EDGE ( 'NONE', *, *, #238, .F. ) ;
#209 = PLANE ( 'NONE',  #197 ) ;
#210 = APPROVAL_ROLE ( '' ) ;
#211 = EDGE_CURVE ( 'NONE', #62, #218, #134, .T. ) ;
#212 = APPROVAL_DATE_TIME ( #71, #72 ) ;
#213 = ORIENTED_EDGE ( 'NONE', *, *, #138, .F. ) ;
#214 = DIRECTION ( 'NONE',  ( 0.000000000000000000, 0.000000000000000000, 1.000000000000000000 ) ) ;
#215 = LINE ( 'NONE', #66, #222 ) ;
#216 = DATE_TIME_ROLE ( 'classification_date' ) ;
#217 = AXIS2_PLACEMENT_3D ( 'NONE', #124, #24, #186 ) ;
#218 = VERTEX_POINT ( 'NONE', #20 ) ;
#219 = CARTESIAN_POINT ( 'NONE',  ( 0.000000000000000000, 0.000000000000000000, 0.000000000000000000 ) ) ;
#220 = CC_DESIGN_PERSON_AND_ORGANIZATION_ASSIGNMENT ( #201, #161, ( #230 ) ) ;
#221 = VERTEX_POINT ( 'NONE', #105 ) ;
#222 = VECTOR ( 'NONE', #163, 1000.000000000000000 ) ;
#223 = CIRCLE ( 'NONE', #60, 8.000000000000000000 ) ;
#224 = PRODUCT_RELATED_PRODUCT_CATEGORY ( 'detail', '', ( #22 ) ) ;
#225 = CARTESIAN_POINT ( 'NONE',  ( 0.000000000000000000, 0.000000000000000000, 250.0000000000000000 ) ) ;
#226 = LOCAL_TIME ( 14, 13, 21.00000000000000000, #56 ) ;
#227 = CIRCLE ( 'NONE', #121, 5.250000000000000000 ) ;
#228 =( LENGTH_UNIT ( ) NAMED_UNIT ( * ) SI_UNIT ( .MILLI., .METRE. ) );
#229 = DIRECTION ( 'NONE',  ( 1.000000000000000000, 0.000000000000000000, -0.000000000000000000 ) ) ;
#230 = PRODUCT_DEFINITION ( 'NEZNÁMÝ', '', #195, #39 ) ;
#231 = LINE ( 'NONE', #88, #203 ) ;
#232 = CARTESIAN_POINT ( 'NONE',  ( 0.000000000000000000, 0.000000000000000000, 250.0000000000000000 ) ) ;
#233 = PERSON_AND_ORGANIZATION ( #204, #42 ) ;
#234 = COORDINATED_UNIVERSAL_TIME_OFFSET ( 1, 0, .AHEAD. ) ;
#235 = EDGE_CURVE ( 'NONE', #148, #169, #85, .T. ) ;
#236 = CARTESIAN_POINT ( 'NONE',  ( 8.000000000000000000, 9.797174393178825657E-16, 5.000000000000000000 ) ) ;
#237 = CARTESIAN_POINT ( 'NONE',  ( 0.000000000000000000, 0.000000000000000000, 5.000000000000000000 ) ) ;
#238 = EDGE_CURVE ( 'NONE', #148, #62, #142, .T. ) ;
#239 = DIRECTION ( 'NONE',  ( 0.000000000000000000, 0.000000000000000000, 1.000000000000000000 ) ) ;
#240 = ORIENTED_EDGE ( 'NONE', *, *, #95, .F. ) ;
#241 = APPROVAL_PERSON_ORGANIZATION ( #233, #61, #132 ) ;
#242 = CARTESIAN_POINT ( 'NONE',  ( 0.000000000000000000, 0.000000000000000000, 0.000000000000000000 ) ) ;
#243 = APPROVAL_STATUS ( 'not_yet_approved' ) ;
#244 = DIRECTION ( 'NONE',  ( -0.000000000000000000, -0.000000000000000000, -1.000000000000000000 ) ) ;
#245 = EDGE_CURVE ( 'NONE', #169, #148, #31, .T. ) ;
#246 = ORIENTED_EDGE ( 'NONE', *, *, #235, .T. ) ;
#247 = ORIENTED_EDGE ( 'NONE', *, *, #64, .F. ) ;
#248 = DIRECTION ( 'NONE',  ( -1.000000000000000000, 0.000000000000000000, 0.000000000000000000 ) ) ;
#249 = CALENDAR_DATE ( 2023, 13, 2 ) ;
#250 = FACE_OUTER_BOUND ( 'NONE', #119, .T. ) ;
#251 = ADVANCED_FACE ( 'NONE', ( #74 ), #26, .T. ) ;
#252 = COORDINATED_UNIVERSAL_TIME_OFFSET ( 1, 0, .AHEAD. ) ;
#253 = CARTESIAN_POINT ( 'NONE',  ( 0.000000000000000000, 0.000000000000000000, 5.000000000000000000 ) ) ;
#254 = AXIS2_PLACEMENT_3D ( 'NONE', #237, #239, #162 ) ;
#255 = ORIENTED_EDGE ( 'NONE', *, *, #35, .T. ) ;
ENDSEC;
END-ISO-10303-21;
