ISO-10303-21;
HEADER;
FILE_DESCRIPTION (( 'STEP AP203' ),
    '1' );
FILE_NAME ('c3de.STEP',
    '2022-07-07T17:20:40',
    ( '' ),
    ( '' ),
    'SwSTEP 2.0',
    'SolidWorks 2019',
    '' );
FILE_SCHEMA (( 'CONFIG_CONTROL_DESIGN' ));
ENDSEC;

DATA;
#1 = EDGE_CURVE ( 'NONE', #221, #12, #177, .T. ) ;
#2 = ORIENTED_EDGE ( 'NONE', *, *, #55, .T. ) ;
#3 = AXIS2_PLACEMENT_3D ( 'NONE', #138, #181, #166 ) ;
#4 = CARTESIAN_POINT ( 'NONE',  ( 0.000000000000000000, 0.000000000000000000, 7.000000000000000000 ) ) ;
#5 = ORIENTED_EDGE ( 'NONE', *, *, #159, .T. ) ;
#6 = FACE_OUTER_BOUND ( 'NONE', #164, .T. ) ;
#7 = ORIENTED_EDGE ( 'NONE', *, *, #130, .F. ) ;
#8 = CARTESIAN_POINT ( 'NONE',  ( 0.000000000000000000, 0.000000000000000000, 0.000000000000000000 ) ) ;
#9 = EDGE_CURVE ( 'NONE', #53, #87, #81, .T. ) ;
#10 = AXIS2_PLACEMENT_3D ( 'NONE', #96, #207, #150 ) ;
#11 = DIRECTION ( 'NONE',  ( 0.000000000000000000, 0.000000000000000000, 1.000000000000000000 ) ) ;
#12 = VERTEX_POINT ( 'NONE', #187 ) ;
#13 = VECTOR ( 'NONE', #52, 1000.000000000000000 ) ;
#14 = PLANE ( 'NONE',  #10 ) ;
#15 = CYLINDRICAL_SURFACE ( 'NONE', #163, 9.000000000000000000 ) ;
#16 = APPROVAL ( #153, 'NEURÈENÝ' ) ;
#17 = DIRECTION ( 'NONE',  ( 1.000000000000000000, 0.000000000000000000, 0.000000000000000000 ) ) ;
#18 = DATE_AND_TIME ( #60, #67 ) ;
#19 = CARTESIAN_POINT ( 'NONE',  ( 5.750000000000000000, 7.041719095097280880E-16, 507.0000000000000000 ) ) ;
#20 = DESIGN_CONTEXT ( 'detailed design', #168, 'design' ) ;
#21 = SECURITY_CLASSIFICATION_LEVEL ( 'unclassified' ) ;
#22 = AXIS2_PLACEMENT_3D ( 'NONE', #8, #236, #190 ) ;
#23 = ADVANCED_FACE ( 'NONE', ( #6 ), #92, .T. ) ;
#24 = ADVANCED_FACE ( 'NONE', ( #223 ), #68, .T. ) ;
#25 = LINE ( 'NONE', #84, #13 ) ;
#26 = ORIENTED_EDGE ( 'NONE', *, *, #89, .T. ) ;
#27 = DIRECTION ( 'NONE',  ( 1.000000000000000000, 0.000000000000000000, 0.000000000000000000 ) ) ;
#28 = EDGE_LOOP ( 'NONE', ( #143, #7 ) ) ;
#29 = CARTESIAN_POINT ( 'NONE',  ( 9.000000000000000000, 1.102182119232617714E-15, 7.000000000000000000 ) ) ;
#30 = ORIENTED_EDGE ( 'NONE', *, *, #159, .F. ) ;
#31 = DIRECTION ( 'NONE',  ( 0.000000000000000000, 0.000000000000000000, 1.000000000000000000 ) ) ;
#32 = ORIENTED_EDGE ( 'NONE', *, *, #197, .T. ) ;
#33 = LOCAL_TIME ( 19, 20, 40.00000000000000000, #61 ) ;
#34 = CALENDAR_DATE ( 2022, 7, 7 ) ;
#35 = DIRECTION ( 'NONE',  ( 1.000000000000000000, 0.000000000000000000, 0.000000000000000000 ) ) ;
#36 = DATE_AND_TIME ( #129, #97 ) ;
#37 = CC_DESIGN_PERSON_AND_ORGANIZATION_ASSIGNMENT ( #194, #216, ( #206 ) ) ;
#38 = CARTESIAN_POINT ( 'NONE',  ( 0.000000000000000000, 0.000000000000000000, 507.0000000000000000 ) ) ;
#39 = APPROVAL_DATE_TIME ( #98, #93 ) ;
#40 = DIRECTION ( 'NONE',  ( -1.000000000000000000, 0.000000000000000000, 0.000000000000000000 ) ) ;
#41 = VECTOR ( 'NONE', #185, 1000.000000000000000 ) ;
#42 = APPROVAL_ROLE ( '' ) ;
#43 = ADVANCED_FACE ( 'NONE', ( #66, #224 ), #219, .T. ) ;
#44 = PERSON ( 'NEURÈENÝ', 'NEURÈENÝ', 'NEURÈENÝ', ('NEURÈENÝ'), ('NEURÈENÝ'), ('NEURÈENÝ') ) ;
#45 = CC_DESIGN_PERSON_AND_ORGANIZATION_ASSIGNMENT ( #112, #235, ( #48 ) ) ;
#46 = APPROVAL_PERSON_ORGANIZATION ( #169, #82, #233 ) ;
#47 = CARTESIAN_POINT ( 'NONE',  ( 9.000000000000000000, 1.102182119232617714E-15, 0.000000000000000000 ) ) ;
#48 = PRODUCT ( 'c3de', 'c3de', '', ( #128 ) ) ;
#49 = ORIENTED_EDGE ( 'NONE', *, *, #171, .T. ) ;
#50 = CARTESIAN_POINT ( 'NONE',  ( 0.000000000000000000, 0.000000000000000000, 507.0000000000000000 ) ) ;
#51 = CIRCLE ( 'NONE', #243, 9.000000000000000000 ) ;
#52 = DIRECTION ( 'NONE',  ( -0.000000000000000000, -0.000000000000000000, -1.000000000000000000 ) ) ;
#53 = VERTEX_POINT ( 'NONE', #83 ) ;
#54 = CARTESIAN_POINT ( 'NONE',  ( 0.000000000000000000, 0.000000000000000000, 7.000000000000000000 ) ) ;
#55 = EDGE_CURVE ( 'NONE', #221, #73, #25, .T. ) ;
#56 = AXIS2_PLACEMENT_3D ( 'NONE', #38, #99, #17 ) ;
#57 = APPLICATION_PROTOCOL_DEFINITION ( 'international standard', 'config_control_design', 1994, #102 ) ;
#58 = CALENDAR_DATE ( 2022, 7, 7 ) ;
#59 = DIRECTION ( 'NONE',  ( -0.000000000000000000, -0.000000000000000000, -1.000000000000000000 ) ) ;
#60 = CALENDAR_DATE ( 2022, 7, 7 ) ;
#61 = COORDINATED_UNIVERSAL_TIME_OFFSET ( 1, 0, .AHEAD. ) ;
#62 = PERSON_AND_ORGANIZATION_ROLE ( 'creator' ) ;
#63 = DIRECTION ( 'NONE',  ( -1.000000000000000000, 0.000000000000000000, 0.000000000000000000 ) ) ;
#64 = CC_DESIGN_PERSON_AND_ORGANIZATION_ASSIGNMENT ( #149, #113, ( #65 ) ) ;
#65 = SECURITY_CLASSIFICATION ( '', '', #21 ) ;
#66 = FACE_BOUND ( 'NONE', #28, .T. ) ;
#67 = LOCAL_TIME ( 19, 20, 40.00000000000000000, #248 ) ;
#68 = CYLINDRICAL_SURFACE ( 'NONE', #208, 9.000000000000000000 ) ;
#69 = ORIENTED_EDGE ( 'NONE', *, *, #89, .F. ) ;
#70 = AXIS2_PLACEMENT_3D ( 'NONE', #241, #31, #161 ) ;
#71 = ORIENTED_EDGE ( 'NONE', *, *, #222, .T. ) ;
#72 = ORIENTED_EDGE ( 'NONE', *, *, #1, .F. ) ;
#73 = VERTEX_POINT ( 'NONE', #204 ) ;
#74 =( NAMED_UNIT ( * ) PLANE_ANGLE_UNIT ( ) SI_UNIT ( $, .RADIAN. ) );
#75 = CALENDAR_DATE ( 2022, 7, 7 ) ;
#76 = FACE_OUTER_BOUND ( 'NONE', #91, .T. ) ;
#77 = DATE_AND_TIME ( #34, #110 ) ;
#78 = FACE_OUTER_BOUND ( 'NONE', #142, .T. ) ;
#79 = APPLICATION_PROTOCOL_DEFINITION ( 'international standard', 'config_control_design', 1994, #168 ) ;
#80 = LINE ( 'NONE', #173, #90 ) ;
#81 = CIRCLE ( 'NONE', #200, 9.000000000000000000 ) ;
#82 = APPROVAL ( #172, 'NEURÈENÝ' ) ;
#83 = CARTESIAN_POINT ( 'NONE',  ( -9.000000000000000000, 0.000000000000000000, 0.000000000000000000 ) ) ;
#84 = CARTESIAN_POINT ( 'NONE',  ( 5.750000000000000000, 7.041719095097280880E-16, 507.0000000000000000 ) ) ;
#85 = CIRCLE ( 'NONE', #195, 5.750000000000000000 ) ;
#86 = CARTESIAN_POINT ( 'NONE',  ( 0.000000000000000000, 0.000000000000000000, 7.000000000000000000 ) ) ;
#87 = VERTEX_POINT ( 'NONE', #47 ) ;
#88 = EDGE_LOOP ( 'NONE', ( #184, #123, #182, #239 ) ) ;
#89 = EDGE_CURVE ( 'NONE', #12, #165, #244, .T. ) ;
#90 = VECTOR ( 'NONE', #135, 1000.000000000000000 ) ;
#91 = EDGE_LOOP ( 'NONE', ( #72, #2, #108, #69 ) ) ;
#92 = CYLINDRICAL_SURFACE ( 'NONE', #3, 5.750000000000000000 ) ;
#93 = APPROVAL ( #152, 'NEURÈENÝ' ) ;
#94 = ADVANCED_BREP_SHAPE_REPRESENTATION ( 'c3de', ( #247, #154 ), #253 ) ;
#95 = ORIENTED_EDGE ( 'NONE', *, *, #55, .F. ) ;
#96 = CARTESIAN_POINT ( 'NONE',  ( 0.000000000000000000, 0.000000000000000000, 0.000000000000000000 ) ) ;
#97 = LOCAL_TIME ( 19, 20, 40.00000000000000000, #131 ) ;
#98 = DATE_AND_TIME ( #75, #174 ) ;
#99 = DIRECTION ( 'NONE',  ( 0.000000000000000000, 0.000000000000000000, 1.000000000000000000 ) ) ;
#100 = AXIS2_PLACEMENT_3D ( 'NONE', #50, #106, #183 ) ;
#101 = APPROVAL_PERSON_ORGANIZATION ( #175, #93, #134 ) ;
#102 = APPLICATION_CONTEXT ( 'configuration controlled 3d designs of mechanical parts and assemblies' ) ;
#103 = LINE ( 'NONE', #29, #41 ) ;
#104 = DIRECTION ( 'NONE',  ( 1.000000000000000000, 0.000000000000000000, 0.000000000000000000 ) ) ;
#105 = EDGE_LOOP ( 'NONE', ( #49, #145 ) ) ;
#106 = DIRECTION ( 'NONE',  ( 0.000000000000000000, 0.000000000000000000, 1.000000000000000000 ) ) ;
#107 = ORIENTED_EDGE ( 'NONE', *, *, #160, .F. ) ;
#108 = ORIENTED_EDGE ( 'NONE', *, *, #130, .T. ) ;
#109 = CARTESIAN_POINT ( 'NONE',  ( 0.000000000000000000, 0.000000000000000000, 0.000000000000000000 ) ) ;
#110 = LOCAL_TIME ( 19, 20, 40.00000000000000000, #211 ) ;
#111 = CC_DESIGN_PERSON_AND_ORGANIZATION_ASSIGNMENT ( #115, #254, ( #206 ) ) ;
#112 = PERSON_AND_ORGANIZATION ( #44, #139 ) ;
#113 = PERSON_AND_ORGANIZATION_ROLE ( 'classification_officer' ) ;
#114 = CARTESIAN_POINT ( 'NONE',  ( 0.000000000000000000, 0.000000000000000000, 0.000000000000000000 ) ) ;
#115 = PERSON_AND_ORGANIZATION ( #44, #139 ) ;
#116 = DIRECTION ( 'NONE',  ( 1.000000000000000000, 0.000000000000000000, 0.000000000000000000 ) ) ;
#117 = APPROVAL_DATE_TIME ( #36, #16 ) ;
#118 = AXIS2_PLACEMENT_3D ( 'NONE', #133, #212, #116 ) ;
#119 = VERTEX_POINT ( 'NONE', #240 ) ;
#120 = FACE_OUTER_BOUND ( 'NONE', #199, .T. ) ;
#121 = DIRECTION ( 'NONE',  ( 1.000000000000000000, 0.000000000000000000, -0.000000000000000000 ) ) ;
#122 = AXIS2_PLACEMENT_3D ( 'NONE', #4, #180, #121 ) ;
#123 = ORIENTED_EDGE ( 'NONE', *, *, #171, .F. ) ;
#124 = DIRECTION ( 'NONE',  ( 0.000000000000000000, 0.000000000000000000, 1.000000000000000000 ) ) ;
#125 = CC_DESIGN_PERSON_AND_ORGANIZATION_ASSIGNMENT ( #234, #62, ( #217 ) ) ;
#126 = CARTESIAN_POINT ( 'NONE',  ( 0.000000000000000000, 0.000000000000000000, 507.0000000000000000 ) ) ;
#127 = CC_DESIGN_SECURITY_CLASSIFICATION ( #65, ( #206 ) ) ;
#128 = MECHANICAL_CONTEXT ( 'NONE', #102, 'mechanical' ) ;
#129 = CALENDAR_DATE ( 2022, 7, 7 ) ;
#130 = EDGE_CURVE ( 'NONE', #73, #165, #158, .T. ) ;
#131 = COORDINATED_UNIVERSAL_TIME_OFFSET ( 1, 0, .AHEAD. ) ;
#132 = ADVANCED_FACE ( 'NONE', ( #120 ), #140, .T. ) ;
#133 = CARTESIAN_POINT ( 'NONE',  ( 0.000000000000000000, 0.000000000000000000, 7.000000000000000000 ) ) ;
#134 = APPROVAL_ROLE ( '' ) ;
#135 = DIRECTION ( 'NONE',  ( -0.000000000000000000, -0.000000000000000000, -1.000000000000000000 ) ) ;
#136 = COORDINATED_UNIVERSAL_TIME_OFFSET ( 1, 0, .AHEAD. ) ;
#137 = CC_DESIGN_APPROVAL ( #93, ( #206 ) ) ;
#138 = CARTESIAN_POINT ( 'NONE',  ( 0.000000000000000000, 0.000000000000000000, 507.0000000000000000 ) ) ;
#139 = ORGANIZATION ( 'NEURÈENÝ', 'NEURÈENÝ', '' ) ;
#140 = PLANE ( 'NONE',  #100 ) ;
#141 = ORIENTED_EDGE ( 'NONE', *, *, #9, .F. ) ;
#142 = EDGE_LOOP ( 'NONE', ( #141, #30 ) ) ;
#143 = ORIENTED_EDGE ( 'NONE', *, *, #222, .F. ) ;
#144 = DIRECTION ( 'NONE',  ( -0.000000000000000000, -0.000000000000000000, -1.000000000000000000 ) ) ;
#145 = ORIENTED_EDGE ( 'NONE', *, *, #147, .T. ) ;
#146 = CIRCLE ( 'NONE', #22, 9.000000000000000000 ) ;
#147 = EDGE_CURVE ( 'NONE', #119, #201, #51, .T. ) ;
#148 = DIRECTION ( 'NONE',  ( 0.000000000000000000, 0.000000000000000000, 1.000000000000000000 ) ) ;
#149 = PERSON_AND_ORGANIZATION ( #44, #139 ) ;
#150 = DIRECTION ( 'NONE',  ( 1.000000000000000000, 0.000000000000000000, -0.000000000000000000 ) ) ;
#151 = EDGE_CURVE ( 'NONE', #119, #87, #103, .T. ) ;
#152 = APPROVAL_STATUS ( 'not_yet_approved' ) ;
#153 = APPROVAL_STATUS ( 'not_yet_approved' ) ;
#154 = AXIS2_PLACEMENT_3D ( 'NONE', #114, #148, #229 ) ;
#155 =( LENGTH_UNIT ( ) NAMED_UNIT ( * ) SI_UNIT ( .MILLI., .METRE. ) );
#156 = APPROVAL_DATE_TIME ( #209, #82 ) ;
#157 = CARTESIAN_POINT ( 'NONE',  ( 0.000000000000000000, 0.000000000000000000, 507.0000000000000000 ) ) ;
#158 = CIRCLE ( 'NONE', #70, 5.750000000000000000 ) ;
#159 = EDGE_CURVE ( 'NONE', #87, #53, #146, .T. ) ;
#160 = EDGE_CURVE ( 'NONE', #201, #53, #80, .T. ) ;
#161 = DIRECTION ( 'NONE',  ( 1.000000000000000000, 0.000000000000000000, 0.000000000000000000 ) ) ;
#162 = DIRECTION ( 'NONE',  ( -0.000000000000000000, -0.000000000000000000, -1.000000000000000000 ) ) ;
#163 = AXIS2_PLACEMENT_3D ( 'NONE', #170, #250, #63 ) ;
#164 = EDGE_LOOP ( 'NONE', ( #95, #167, #26, #71 ) ) ;
#165 = VERTEX_POINT ( 'NONE', #192 ) ;
#166 = DIRECTION ( 'NONE',  ( -1.000000000000000000, 0.000000000000000000, 0.000000000000000000 ) ) ;
#167 = ORIENTED_EDGE ( 'NONE', *, *, #197, .F. ) ;
#168 = APPLICATION_CONTEXT ( 'configuration controlled 3d designs of mechanical parts and assemblies' ) ;
#169 = PERSON_AND_ORGANIZATION ( #44, #139 ) ;
#170 = CARTESIAN_POINT ( 'NONE',  ( 0.000000000000000000, 0.000000000000000000, 7.000000000000000000 ) ) ;
#171 = EDGE_CURVE ( 'NONE', #201, #119, #232, .T. ) ;
#172 = APPROVAL_STATUS ( 'not_yet_approved' ) ;
#173 = CARTESIAN_POINT ( 'NONE',  ( -9.000000000000000000, 0.000000000000000000, 7.000000000000000000 ) ) ;
#174 = LOCAL_TIME ( 19, 20, 40.00000000000000000, #136 ) ;
#175 = PERSON_AND_ORGANIZATION ( #44, #139 ) ;
#176 = CARTESIAN_POINT ( 'NONE',  ( -9.000000000000000000, 0.000000000000000000, 7.000000000000000000 ) ) ;
#177 = CIRCLE ( 'NONE', #188, 5.750000000000000000 ) ;
#178 = ADVANCED_FACE ( 'NONE', ( #78 ), #14, .F. ) ;
#179 = CC_DESIGN_DATE_AND_TIME_ASSIGNMENT ( #18, #214, ( #217 ) ) ;
#180 = DIRECTION ( 'NONE',  ( 0.000000000000000000, 0.000000000000000000, 1.000000000000000000 ) ) ;
#181 = DIRECTION ( 'NONE',  ( -0.000000000000000000, -0.000000000000000000, -1.000000000000000000 ) ) ;
#182 = ORIENTED_EDGE ( 'NONE', *, *, #160, .T. ) ;
#183 = DIRECTION ( 'NONE',  ( 1.000000000000000000, 0.000000000000000000, -0.000000000000000000 ) ) ;
#184 = ORIENTED_EDGE ( 'NONE', *, *, #151, .F. ) ;
#185 = DIRECTION ( 'NONE',  ( -0.000000000000000000, -0.000000000000000000, -1.000000000000000000 ) ) ;
#186 = EDGE_LOOP ( 'NONE', ( #242, #246, #5, #107 ) ) ;
#187 = CARTESIAN_POINT ( 'NONE',  ( -5.750000000000000000, 0.000000000000000000, 507.0000000000000000 ) ) ;
#188 = AXIS2_PLACEMENT_3D ( 'NONE', #126, #238, #27 ) ;
#189 = CIRCLE ( 'NONE', #56, 5.750000000000000000 ) ;
#190 = DIRECTION ( 'NONE',  ( 1.000000000000000000, 0.000000000000000000, 0.000000000000000000 ) ) ;
#191 = FACE_OUTER_BOUND ( 'NONE', #186, .T. ) ;
#192 = CARTESIAN_POINT ( 'NONE',  ( -5.750000000000000000, 0.000000000000000000, 7.000000000000000000 ) ) ;
#193 = SHAPE_DEFINITION_REPRESENTATION ( #202, #94 ) ;
#194 = PERSON_AND_ORGANIZATION ( #44, #139 ) ;
#195 = AXIS2_PLACEMENT_3D ( 'NONE', #252, #231, #35 ) ;
#196 = VECTOR ( 'NONE', #162, 1000.000000000000000 ) ;
#197 = EDGE_CURVE ( 'NONE', #12, #221, #189, .T. ) ;
#198 = DIRECTION ( 'NONE',  ( -1.000000000000000000, 0.000000000000000000, 0.000000000000000000 ) ) ;
#199 = EDGE_LOOP ( 'NONE', ( #32, #225 ) ) ;
#200 = AXIS2_PLACEMENT_3D ( 'NONE', #109, #11, #104 ) ;
#201 = VERTEX_POINT ( 'NONE', #176 ) ;
#202 = PRODUCT_DEFINITION_SHAPE ( 'NONE', 'NONE',  #217 ) ;
#203 = DIRECTION ( 'NONE',  ( 1.000000000000000000, 0.000000000000000000, 0.000000000000000000 ) ) ;
#204 = CARTESIAN_POINT ( 'NONE',  ( 5.750000000000000000, 7.041719095097280880E-16, 7.000000000000000000 ) ) ;
#205 = APPROVAL_PERSON_ORGANIZATION ( #251, #16, #42 ) ;
#206 = PRODUCT_DEFINITION_FORMATION_WITH_SPECIFIED_SOURCE ( 'LIBOVOLNÝ', '', #48, .NOT_KNOWN. ) ;
#207 = DIRECTION ( 'NONE',  ( 0.000000000000000000, 0.000000000000000000, 1.000000000000000000 ) ) ;
#208 = AXIS2_PLACEMENT_3D ( 'NONE', #54, #144, #198 ) ;
#209 = DATE_AND_TIME ( #58, #33 ) ;
#210 = UNCERTAINTY_MEASURE_WITH_UNIT (LENGTH_MEASURE( 1.000000000000000082E-05 ), #155, 'distance_accuracy_value', 'NONE');
#211 = COORDINATED_UNIVERSAL_TIME_OFFSET ( 1, 0, .AHEAD. ) ;
#212 = DIRECTION ( 'NONE',  ( 0.000000000000000000, 0.000000000000000000, 1.000000000000000000 ) ) ;
#213 = ADVANCED_FACE ( 'NONE', ( #191 ), #15, .T. ) ;
#214 = DATE_TIME_ROLE ( 'creation_date' ) ;
#215 =( NAMED_UNIT ( * ) SI_UNIT ( $, .STERADIAN. ) SOLID_ANGLE_UNIT ( ) );
#216 = PERSON_AND_ORGANIZATION_ROLE ( 'design_supplier' ) ;
#217 = PRODUCT_DEFINITION ( 'NEZNÁMÝ', '', #206, #20 ) ;
#218 = CLOSED_SHELL ( 'NONE', ( #249, #213, #24, #43, #178, #23, #132 ) ) ;
#219 = PLANE ( 'NONE',  #122 ) ;
#220 = CC_DESIGN_APPROVAL ( #82, ( #217 ) ) ;
#221 = VERTEX_POINT ( 'NONE', #19 ) ;
#222 = EDGE_CURVE ( 'NONE', #165, #73, #85, .T. ) ;
#223 = FACE_OUTER_BOUND ( 'NONE', #88, .T. ) ;
#224 = FACE_OUTER_BOUND ( 'NONE', #105, .T. ) ;
#225 = ORIENTED_EDGE ( 'NONE', *, *, #1, .T. ) ;
#226 = CARTESIAN_POINT ( 'NONE',  ( -5.750000000000000000, 0.000000000000000000, 507.0000000000000000 ) ) ;
#227 = PRODUCT_RELATED_PRODUCT_CATEGORY ( 'detail', '', ( #48 ) ) ;
#228 = AXIS2_PLACEMENT_3D ( 'NONE', #157, #59, #40 ) ;
#229 = DIRECTION ( 'NONE',  ( 1.000000000000000000, 0.000000000000000000, 0.000000000000000000 ) ) ;
#230 = DATE_TIME_ROLE ( 'classification_date' ) ;
#231 = DIRECTION ( 'NONE',  ( 0.000000000000000000, 0.000000000000000000, 1.000000000000000000 ) ) ;
#232 = CIRCLE ( 'NONE', #118, 9.000000000000000000 ) ;
#233 = APPROVAL_ROLE ( '' ) ;
#234 = PERSON_AND_ORGANIZATION ( #44, #139 ) ;
#235 = PERSON_AND_ORGANIZATION_ROLE ( 'design_owner' ) ;
#236 = DIRECTION ( 'NONE',  ( 0.000000000000000000, 0.000000000000000000, 1.000000000000000000 ) ) ;
#237 = CC_DESIGN_APPROVAL ( #16, ( #65 ) ) ;
#238 = DIRECTION ( 'NONE',  ( 0.000000000000000000, 0.000000000000000000, 1.000000000000000000 ) ) ;
#239 = ORIENTED_EDGE ( 'NONE', *, *, #9, .T. ) ;
#240 = CARTESIAN_POINT ( 'NONE',  ( 9.000000000000000000, 1.102182119232617714E-15, 7.000000000000000000 ) ) ;
#241 = CARTESIAN_POINT ( 'NONE',  ( 0.000000000000000000, 0.000000000000000000, 7.000000000000000000 ) ) ;
#242 = ORIENTED_EDGE ( 'NONE', *, *, #147, .F. ) ;
#243 = AXIS2_PLACEMENT_3D ( 'NONE', #86, #124, #203 ) ;
#244 = LINE ( 'NONE', #226, #196 ) ;
#245 = CC_DESIGN_DATE_AND_TIME_ASSIGNMENT ( #77, #230, ( #65 ) ) ;
#246 = ORIENTED_EDGE ( 'NONE', *, *, #151, .T. ) ;
#247 = MANIFOLD_SOLID_BREP ( 'Pøidat vysunutím3', #218 ) ;
#248 = COORDINATED_UNIVERSAL_TIME_OFFSET ( 1, 0, .AHEAD. ) ;
#249 = ADVANCED_FACE ( 'NONE', ( #76 ), #255, .T. ) ;
#250 = DIRECTION ( 'NONE',  ( -0.000000000000000000, -0.000000000000000000, -1.000000000000000000 ) ) ;
#251 = PERSON_AND_ORGANIZATION ( #44, #139 ) ;
#252 = CARTESIAN_POINT ( 'NONE',  ( 0.000000000000000000, 0.000000000000000000, 7.000000000000000000 ) ) ;
#253 =( GEOMETRIC_REPRESENTATION_CONTEXT ( 3 ) GLOBAL_UNCERTAINTY_ASSIGNED_CONTEXT ( ( #210 ) ) GLOBAL_UNIT_ASSIGNED_CONTEXT ( ( #155, #74, #215 ) ) REPRESENTATION_CONTEXT ( 'NONE', 'WORKASPACE' ) );
#254 = PERSON_AND_ORGANIZATION_ROLE ( 'creator' ) ;
#255 = CYLINDRICAL_SURFACE ( 'NONE', #228, 5.750000000000000000 ) ;
ENDSEC;
END-ISO-10303-21;
