ISO-10303-21;
HEADER;
FILE_DESCRIPTION (( 'STEP AP203' ),
    '1' );
FILE_NAME ('dc60.STEP',
    '2022-07-07T17:05:33',
    ( '' ),
    ( '' ),
    'SwSTEP 2.0',
    'SolidWorks 2019',
    '' );
FILE_SCHEMA (( 'CONFIG_CONTROL_DESIGN' ));
ENDSEC;

DATA;
#1 = ORIENTED_EDGE ( 'NONE', *, *, #87, .F. ) ;
#2 = VECTOR ( 'NONE', #153, 1000.000000000000000 ) ;
#3 = CARTESIAN_POINT ( 'NONE',  ( 12.00000000000000178, 1.469576158976824144E-15, 0.000000000000000000 ) ) ;
#4 = PRODUCT_DEFINITION_SHAPE ( 'NONE', 'NONE',  #63 ) ;
#5 = LOCAL_TIME ( 19, 5, 33.00000000000000000, #54 ) ;
#6 = DIRECTION ( 'NONE',  ( 0.000000000000000000, 0.000000000000000000, 1.000000000000000000 ) ) ;
#7 = CIRCLE ( 'NONE', #72, 12.00000000000000178 ) ;
#8 = CARTESIAN_POINT ( 'NONE',  ( 0.000000000000000000, 0.000000000000000000, 132.0000000000000000 ) ) ;
#9 = CARTESIAN_POINT ( 'NONE',  ( 0.000000000000000000, 0.000000000000000000, 132.0000000000000000 ) ) ;
#10 = EDGE_CURVE ( 'NONE', #41, #32, #222, .T. ) ;
#11 =( GEOMETRIC_REPRESENTATION_CONTEXT ( 3 ) GLOBAL_UNCERTAINTY_ASSIGNED_CONTEXT ( ( #166 ) ) GLOBAL_UNIT_ASSIGNED_CONTEXT ( ( #219, #44, #123 ) ) REPRESENTATION_CONTEXT ( 'NONE', 'WORKASPACE' ) );
#12 = PERSON_AND_ORGANIZATION ( #178, #154 ) ;
#13 = CC_DESIGN_DATE_AND_TIME_ASSIGNMENT ( #92, #170, ( #157 ) ) ;
#14 = PERSON_AND_ORGANIZATION_ROLE ( 'classification_officer' ) ;
#15 = CALENDAR_DATE ( 2022, 7, 7 ) ;
#16 = FACE_OUTER_BOUND ( 'NONE', #148, .T. ) ;
#17 = DATE_AND_TIME ( #227, #173 ) ;
#18 = VECTOR ( 'NONE', #158, 1000.000000000000000 ) ;
#19 = EDGE_LOOP ( 'NONE', ( #105, #182, #152, #218 ) ) ;
#20 = VERTEX_POINT ( 'NONE', #57 ) ;
#21 = APPROVAL ( #33, 'NEURÈENÝ' ) ;
#22 = ORIENTED_EDGE ( 'NONE', *, *, #87, .T. ) ;
#23 = APPROVAL ( #130, 'NEURÈENÝ' ) ;
#24 = CC_DESIGN_PERSON_AND_ORGANIZATION_ASSIGNMENT ( #12, #191, ( #235 ) ) ;
#25 = EDGE_LOOP ( 'NONE', ( #214, #190 ) ) ;
#26 = DIRECTION ( 'NONE',  ( 0.000000000000000000, 0.000000000000000000, 1.000000000000000000 ) ) ;
#27 = AXIS2_PLACEMENT_3D ( 'NONE', #102, #6, #163 ) ;
#28 = PRODUCT ( 'dc60', 'dc60', '', ( #68 ) ) ;
#29 = COORDINATED_UNIVERSAL_TIME_OFFSET ( 1, 0, .AHEAD. ) ;
#30 = ORIENTED_EDGE ( 'NONE', *, *, #234, .T. ) ;
#31 = PERSON_AND_ORGANIZATION_ROLE ( 'creator' ) ;
#32 = VERTEX_POINT ( 'NONE', #155 ) ;
#33 = APPROVAL_STATUS ( 'not_yet_approved' ) ;
#34 = LINE ( 'NONE', #74, #2 ) ;
#35 = AXIS2_PLACEMENT_3D ( 'NONE', #96, #193, #230 ) ;
#36 = FACE_OUTER_BOUND ( 'NONE', #250, .T. ) ;
#37 = CARTESIAN_POINT ( 'NONE',  ( 0.000000000000000000, 0.000000000000000000, 7.000000000000000000 ) ) ;
#38 = CC_DESIGN_PERSON_AND_ORGANIZATION_ASSIGNMENT ( #168, #50, ( #28 ) ) ;
#39 = PLANE ( 'NONE',  #141 ) ;
#40 = CC_DESIGN_PERSON_AND_ORGANIZATION_ASSIGNMENT ( #111, #107, ( #63 ) ) ;
#41 = VERTEX_POINT ( 'NONE', #174 ) ;
#42 = LOCAL_TIME ( 19, 5, 33.00000000000000000, #29 ) ;
#43 = EDGE_CURVE ( 'NONE', #188, #20, #34, .T. ) ;
#44 =( NAMED_UNIT ( * ) PLANE_ANGLE_UNIT ( ) SI_UNIT ( $, .RADIAN. ) );
#45 = CARTESIAN_POINT ( 'NONE',  ( 0.000000000000000000, 0.000000000000000000, 7.000000000000000000 ) ) ;
#46 = ORIENTED_EDGE ( 'NONE', *, *, #10, .F. ) ;
#47 = PLANE ( 'NONE',  #202 ) ;
#48 = ORIENTED_EDGE ( 'NONE', *, *, #234, .F. ) ;
#49 = CC_DESIGN_APPROVAL ( #23, ( #63 ) ) ;
#50 = PERSON_AND_ORGANIZATION_ROLE ( 'design_owner' ) ;
#51 = DIRECTION ( 'NONE',  ( 1.000000000000000000, 0.000000000000000000, 0.000000000000000000 ) ) ;
#52 = PERSON_AND_ORGANIZATION ( #178, #154 ) ;
#53 = EDGE_CURVE ( 'NONE', #100, #188, #89, .T. ) ;
#54 = COORDINATED_UNIVERSAL_TIME_OFFSET ( 1, 0, .AHEAD. ) ;
#55 = DIRECTION ( 'NONE',  ( 0.000000000000000000, 0.000000000000000000, 1.000000000000000000 ) ) ;
#56 = CARTESIAN_POINT ( 'NONE',  ( 0.000000000000000000, 0.000000000000000000, 7.000000000000000000 ) ) ;
#57 = CARTESIAN_POINT ( 'NONE',  ( -12.00000000000000178, 0.000000000000000000, 0.000000000000000000 ) ) ;
#58 = EDGE_LOOP ( 'NONE', ( #1, #46 ) ) ;
#59 = EDGE_LOOP ( 'NONE', ( #150, #48, #242, #22 ) ) ;
#60 = CIRCLE ( 'NONE', #94, 9.000000000000001776 ) ;
#61 = CARTESIAN_POINT ( 'NONE',  ( 9.000000000000001776, 1.102182119232617911E-15, 132.0000000000000000 ) ) ;
#62 = CYLINDRICAL_SURFACE ( 'NONE', #124, 9.000000000000001776 ) ;
#63 = PRODUCT_DEFINITION ( 'NEZNÁMÝ', '', #235, #121 ) ;
#64 = DIRECTION ( 'NONE',  ( -0.000000000000000000, -0.000000000000000000, -1.000000000000000000 ) ) ;
#65 = FACE_BOUND ( 'NONE', #58, .T. ) ;
#66 = ORIENTED_EDGE ( 'NONE', *, *, #10, .T. ) ;
#67 = PERSON_AND_ORGANIZATION ( #178, #154 ) ;
#68 = MECHANICAL_CONTEXT ( 'NONE', #127, 'mechanical' ) ;
#69 = ORIENTED_EDGE ( 'NONE', *, *, #159, .T. ) ;
#70 = CALENDAR_DATE ( 2022, 7, 7 ) ;
#71 = ADVANCED_FACE ( 'NONE', ( #132 ), #118, .T. ) ;
#72 = AXIS2_PLACEMENT_3D ( 'NONE', #135, #117, #93 ) ;
#73 = DATE_AND_TIME ( #70, #78 ) ;
#74 = CARTESIAN_POINT ( 'NONE',  ( -12.00000000000000178, 0.000000000000000000, 7.000000000000000000 ) ) ;
#75 = EDGE_LOOP ( 'NONE', ( #160, #201, #66, #232 ) ) ;
#76 = DIRECTION ( 'NONE',  ( 0.000000000000000000, 0.000000000000000000, 1.000000000000000000 ) ) ;
#77 = CC_DESIGN_PERSON_AND_ORGANIZATION_ASSIGNMENT ( #67, #14, ( #157 ) ) ;
#78 = LOCAL_TIME ( 19, 5, 33.00000000000000000, #226 ) ;
#79 = PLANE ( 'NONE',  #254 ) ;
#80 = DIRECTION ( 'NONE',  ( 0.000000000000000000, 0.000000000000000000, 1.000000000000000000 ) ) ;
#81 = DIRECTION ( 'NONE',  ( 1.000000000000000000, 0.000000000000000000, 0.000000000000000000 ) ) ;
#82 = EDGE_CURVE ( 'NONE', #139, #32, #137, .T. ) ;
#83 = FACE_OUTER_BOUND ( 'NONE', #59, .T. ) ;
#84 = CARTESIAN_POINT ( 'NONE',  ( -12.00000000000000178, 0.000000000000000000, 7.000000000000000000 ) ) ;
#85 = ADVANCED_BREP_SHAPE_REPRESENTATION ( 'dc60', ( #247, #116 ), #11 ) ;
#86 = CYLINDRICAL_SURFACE ( 'NONE', #220, 12.00000000000000178 ) ;
#87 = EDGE_CURVE ( 'NONE', #32, #41, #245, .T. ) ;
#88 = ORIENTED_EDGE ( 'NONE', *, *, #147, .F. ) ;
#89 = CIRCLE ( 'NONE', #119, 12.00000000000000178 ) ;
#90 = AXIS2_PLACEMENT_3D ( 'NONE', #140, #126, #204 ) ;
#91 = APPROVAL_ROLE ( '' ) ;
#92 = DATE_AND_TIME ( #15, #238 ) ;
#93 = DIRECTION ( 'NONE',  ( 1.000000000000000000, 0.000000000000000000, 0.000000000000000000 ) ) ;
#94 = AXIS2_PLACEMENT_3D ( 'NONE', #142, #26, #104 ) ;
#95 = ORIENTED_EDGE ( 'NONE', *, *, #129, .F. ) ;
#96 = CARTESIAN_POINT ( 'NONE',  ( 0.000000000000000000, 0.000000000000000000, 7.000000000000000000 ) ) ;
#97 = ADVANCED_FACE ( 'NONE', ( #36 ), #79, .T. ) ;
#98 = DIRECTION ( 'NONE',  ( 1.000000000000000000, 0.000000000000000000, 0.000000000000000000 ) ) ;
#99 = DIRECTION ( 'NONE',  ( -0.000000000000000000, -0.000000000000000000, -1.000000000000000000 ) ) ;
#100 = VERTEX_POINT ( 'NONE', #251 ) ;
#101 = CC_DESIGN_SECURITY_CLASSIFICATION ( #157, ( #235 ) ) ;
#102 = CARTESIAN_POINT ( 'NONE',  ( 0.000000000000000000, 0.000000000000000000, 0.000000000000000000 ) ) ;
#103 = FACE_OUTER_BOUND ( 'NONE', #75, .T. ) ;
#104 = DIRECTION ( 'NONE',  ( 1.000000000000000000, 0.000000000000000000, 0.000000000000000000 ) ) ;
#105 = ORIENTED_EDGE ( 'NONE', *, *, #53, .F. ) ;
#106 = APPROVAL_DATE_TIME ( #210, #228 ) ;
#107 = PERSON_AND_ORGANIZATION_ROLE ( 'creator' ) ;
#108 = ADVANCED_FACE ( 'NONE', ( #16 ), #39, .F. ) ;
#109 = CC_DESIGN_APPROVAL ( #228, ( #157 ) ) ;
#110 = COORDINATED_UNIVERSAL_TIME_OFFSET ( 1, 0, .AHEAD. ) ;
#111 = PERSON_AND_ORGANIZATION ( #178, #154 ) ;
#112 = CARTESIAN_POINT ( 'NONE',  ( 9.000000000000001776, 1.102182119232617911E-15, 132.0000000000000000 ) ) ;
#113 = DATE_AND_TIME ( #207, #42 ) ;
#114 = CARTESIAN_POINT ( 'NONE',  ( 12.00000000000000178, 1.469576158976824144E-15, 7.000000000000000000 ) ) ;
#115 = AXIS2_PLACEMENT_3D ( 'NONE', #37, #76, #213 ) ;
#116 = AXIS2_PLACEMENT_3D ( 'NONE', #225, #167, #51 ) ;
#117 = DIRECTION ( 'NONE',  ( 0.000000000000000000, 0.000000000000000000, 1.000000000000000000 ) ) ;
#118 = CYLINDRICAL_SURFACE ( 'NONE', #35, 12.00000000000000178 ) ;
#119 = AXIS2_PLACEMENT_3D ( 'NONE', #138, #177, #98 ) ;
#120 = VERTEX_POINT ( 'NONE', #112 ) ;
#121 = DESIGN_CONTEXT ( 'detailed design', #212, 'design' ) ;
#122 = EDGE_LOOP ( 'NONE', ( #88, #233, #172, #199 ) ) ;
#123 =( NAMED_UNIT ( * ) SI_UNIT ( $, .STERADIAN. ) SOLID_ANGLE_UNIT ( ) );
#124 = AXIS2_PLACEMENT_3D ( 'NONE', #237, #64, #185 ) ;
#125 = FACE_OUTER_BOUND ( 'NONE', #25, .T. ) ;
#126 = DIRECTION ( 'NONE',  ( 0.000000000000000000, 0.000000000000000000, 1.000000000000000000 ) ) ;
#127 = APPLICATION_CONTEXT ( 'configuration controlled 3d designs of mechanical parts and assemblies' ) ;
#128 = APPLICATION_PROTOCOL_DEFINITION ( 'international standard', 'config_control_design', 1994, #127 ) ;
#129 = EDGE_CURVE ( 'NONE', #20, #187, #7, .T. ) ;
#130 = APPROVAL_STATUS ( 'not_yet_approved' ) ;
#131 = SECURITY_CLASSIFICATION_LEVEL ( 'unclassified' ) ;
#132 = FACE_OUTER_BOUND ( 'NONE', #19, .T. ) ;
#133 = CALENDAR_DATE ( 2022, 7, 7 ) ;
#134 = DIRECTION ( 'NONE',  ( 0.000000000000000000, 0.000000000000000000, 1.000000000000000000 ) ) ;
#135 = CARTESIAN_POINT ( 'NONE',  ( 0.000000000000000000, 0.000000000000000000, 0.000000000000000000 ) ) ;
#136 = APPROVAL_PERSON_ORGANIZATION ( #246, #228, #229 ) ;
#137 = LINE ( 'NONE', #197, #144 ) ;
#138 = CARTESIAN_POINT ( 'NONE',  ( 0.000000000000000000, 0.000000000000000000, 7.000000000000000000 ) ) ;
#139 = VERTEX_POINT ( 'NONE', #249 ) ;
#140 = CARTESIAN_POINT ( 'NONE',  ( 0.000000000000000000, 0.000000000000000000, 7.000000000000000000 ) ) ;
#141 = AXIS2_PLACEMENT_3D ( 'NONE', #175, #134, #209 ) ;
#142 = CARTESIAN_POINT ( 'NONE',  ( 0.000000000000000000, 0.000000000000000000, 132.0000000000000000 ) ) ;
#143 = DIRECTION ( 'NONE',  ( 1.000000000000000000, 0.000000000000000000, -0.000000000000000000 ) ) ;
#144 = VECTOR ( 'NONE', #99, 1000.000000000000000 ) ;
#145 = CIRCLE ( 'NONE', #27, 12.00000000000000178 ) ;
#146 = APPROVAL_ROLE ( '' ) ;
#147 = EDGE_CURVE ( 'NONE', #100, #187, #211, .T. ) ;
#148 = EDGE_LOOP ( 'NONE', ( #95, #252 ) ) ;
#149 = APPROVAL_STATUS ( 'not_yet_approved' ) ;
#150 = ORIENTED_EDGE ( 'NONE', *, *, #241, .F. ) ;
#151 = ADVANCED_FACE ( 'NONE', ( #103 ), #164, .T. ) ;
#152 = ORIENTED_EDGE ( 'NONE', *, *, #176, .T. ) ;
#153 = DIRECTION ( 'NONE',  ( -0.000000000000000000, -0.000000000000000000, -1.000000000000000000 ) ) ;
#154 = ORGANIZATION ( 'NEURÈENÝ', 'NEURÈENÝ', '' ) ;
#155 = CARTESIAN_POINT ( 'NONE',  ( -9.000000000000001776, 0.000000000000000000, 7.000000000000000000 ) ) ;
#156 = CLOSED_SHELL ( 'NONE', ( #151, #71, #179, #200, #108, #223, #97 ) ) ;
#157 = SECURITY_CLASSIFICATION ( '', '', #131 ) ;
#158 = DIRECTION ( 'NONE',  ( -0.000000000000000000, -0.000000000000000000, -1.000000000000000000 ) ) ;
#159 = EDGE_CURVE ( 'NONE', #120, #139, #169, .T. ) ;
#160 = ORIENTED_EDGE ( 'NONE', *, *, #159, .F. ) ;
#161 = DIRECTION ( 'NONE',  ( -1.000000000000000000, 0.000000000000000000, 0.000000000000000000 ) ) ;
#162 = AXIS2_PLACEMENT_3D ( 'NONE', #9, #240, #81 ) ;
#163 = DIRECTION ( 'NONE',  ( 1.000000000000000000, 0.000000000000000000, 0.000000000000000000 ) ) ;
#164 = CYLINDRICAL_SURFACE ( 'NONE', #198, 9.000000000000001776 ) ;
#165 = APPROVAL_PERSON_ORGANIZATION ( #52, #21, #91 ) ;
#166 = UNCERTAINTY_MEASURE_WITH_UNIT (LENGTH_MEASURE( 1.000000000000000082E-05 ), #219, 'distance_accuracy_value', 'NONE');
#167 = DIRECTION ( 'NONE',  ( 0.000000000000000000, 0.000000000000000000, 1.000000000000000000 ) ) ;
#168 = PERSON_AND_ORGANIZATION ( #178, #154 ) ;
#169 = CIRCLE ( 'NONE', #162, 9.000000000000001776 ) ;
#170 = DATE_TIME_ROLE ( 'classification_date' ) ;
#171 = CIRCLE ( 'NONE', #90, 12.00000000000000178 ) ;
#172 = ORIENTED_EDGE ( 'NONE', *, *, #43, .T. ) ;
#173 = LOCAL_TIME ( 19, 5, 33.00000000000000000, #110 ) ;
#174 = CARTESIAN_POINT ( 'NONE',  ( 9.000000000000001776, 1.102182119232617911E-15, 7.000000000000000000 ) ) ;
#175 = CARTESIAN_POINT ( 'NONE',  ( 0.000000000000000000, 0.000000000000000000, 0.000000000000000000 ) ) ;
#176 = EDGE_CURVE ( 'NONE', #187, #20, #145, .T. ) ;
#177 = DIRECTION ( 'NONE',  ( 0.000000000000000000, 0.000000000000000000, 1.000000000000000000 ) ) ;
#178 = PERSON ( 'NEURÈENÝ', 'NEURÈENÝ', 'NEURÈENÝ', ('NEURÈENÝ'), ('NEURÈENÝ'), ('NEURÈENÝ') ) ;
#179 = ADVANCED_FACE ( 'NONE', ( #239 ), #86, .T. ) ;
#180 = AXIS2_PLACEMENT_3D ( 'NONE', #56, #255, #196 ) ;
#181 = LINE ( 'NONE', #61, #18 ) ;
#182 = ORIENTED_EDGE ( 'NONE', *, *, #147, .T. ) ;
#183 = DIRECTION ( 'NONE',  ( -0.000000000000000000, -0.000000000000000000, -1.000000000000000000 ) ) ;
#184 = SHAPE_DEFINITION_REPRESENTATION ( #4, #85 ) ;
#185 = DIRECTION ( 'NONE',  ( -1.000000000000000000, 0.000000000000000000, 0.000000000000000000 ) ) ;
#186 = PRODUCT_RELATED_PRODUCT_CATEGORY ( 'detail', '', ( #28 ) ) ;
#187 = VERTEX_POINT ( 'NONE', #3 ) ;
#188 = VERTEX_POINT ( 'NONE', #84 ) ;
#189 = PERSON_AND_ORGANIZATION ( #178, #154 ) ;
#190 = ORIENTED_EDGE ( 'NONE', *, *, #53, .T. ) ;
#191 = PERSON_AND_ORGANIZATION_ROLE ( 'design_supplier' ) ;
#192 = DATE_TIME_ROLE ( 'creation_date' ) ;
#193 = DIRECTION ( 'NONE',  ( -0.000000000000000000, -0.000000000000000000, -1.000000000000000000 ) ) ;
#194 = APPROVAL_DATE_TIME ( #113, #21 ) ;
#195 = DIRECTION ( 'NONE',  ( -0.000000000000000000, -0.000000000000000000, -1.000000000000000000 ) ) ;
#196 = DIRECTION ( 'NONE',  ( 1.000000000000000000, 0.000000000000000000, 0.000000000000000000 ) ) ;
#197 = CARTESIAN_POINT ( 'NONE',  ( -9.000000000000001776, 0.000000000000000000, 132.0000000000000000 ) ) ;
#198 = AXIS2_PLACEMENT_3D ( 'NONE', #8, #183, #161 ) ;
#199 = ORIENTED_EDGE ( 'NONE', *, *, #129, .T. ) ;
#200 = ADVANCED_FACE ( 'NONE', ( #65, #125 ), #47, .T. ) ;
#201 = ORIENTED_EDGE ( 'NONE', *, *, #241, .T. ) ;
#202 = AXIS2_PLACEMENT_3D ( 'NONE', #203, #80, #143 ) ;
#203 = CARTESIAN_POINT ( 'NONE',  ( 0.000000000000000000, 0.000000000000000000, 7.000000000000000000 ) ) ;
#204 = DIRECTION ( 'NONE',  ( 1.000000000000000000, 0.000000000000000000, 0.000000000000000000 ) ) ;
#205 = EDGE_CURVE ( 'NONE', #188, #100, #171, .T. ) ;
#206 = PERSON_AND_ORGANIZATION ( #178, #154 ) ;
#207 = CALENDAR_DATE ( 2022, 7, 7 ) ;
#208 = COORDINATED_UNIVERSAL_TIME_OFFSET ( 1, 0, .AHEAD. ) ;
#209 = DIRECTION ( 'NONE',  ( 1.000000000000000000, 0.000000000000000000, -0.000000000000000000 ) ) ;
#210 = DATE_AND_TIME ( #133, #5 ) ;
#211 = LINE ( 'NONE', #114, #216 ) ;
#212 = APPLICATION_CONTEXT ( 'configuration controlled 3d designs of mechanical parts and assemblies' ) ;
#213 = DIRECTION ( 'NONE',  ( 1.000000000000000000, 0.000000000000000000, 0.000000000000000000 ) ) ;
#214 = ORIENTED_EDGE ( 'NONE', *, *, #205, .T. ) ;
#215 = CARTESIAN_POINT ( 'NONE',  ( 0.000000000000000000, 0.000000000000000000, 132.0000000000000000 ) ) ;
#216 = VECTOR ( 'NONE', #195, 1000.000000000000000 ) ;
#217 = CC_DESIGN_PERSON_AND_ORGANIZATION_ASSIGNMENT ( #189, #31, ( #235 ) ) ;
#218 = ORIENTED_EDGE ( 'NONE', *, *, #43, .F. ) ;
#219 =( LENGTH_UNIT ( ) NAMED_UNIT ( * ) SI_UNIT ( .MILLI., .METRE. ) );
#220 = AXIS2_PLACEMENT_3D ( 'NONE', #45, #221, #236 ) ;
#221 = DIRECTION ( 'NONE',  ( -0.000000000000000000, -0.000000000000000000, -1.000000000000000000 ) ) ;
#222 = CIRCLE ( 'NONE', #115, 9.000000000000001776 ) ;
#223 = ADVANCED_FACE ( 'NONE', ( #83 ), #62, .T. ) ;
#224 = APPROVAL_PERSON_ORGANIZATION ( #206, #23, #146 ) ;
#225 = CARTESIAN_POINT ( 'NONE',  ( 0.000000000000000000, 0.000000000000000000, 0.000000000000000000 ) ) ;
#226 = COORDINATED_UNIVERSAL_TIME_OFFSET ( 1, 0, .AHEAD. ) ;
#227 = CALENDAR_DATE ( 2022, 7, 7 ) ;
#228 = APPROVAL ( #149, 'NEURÈENÝ' ) ;
#229 = APPROVAL_ROLE ( '' ) ;
#230 = DIRECTION ( 'NONE',  ( -1.000000000000000000, 0.000000000000000000, 0.000000000000000000 ) ) ;
#231 = DIRECTION ( 'NONE',  ( 1.000000000000000000, 0.000000000000000000, -0.000000000000000000 ) ) ;
#232 = ORIENTED_EDGE ( 'NONE', *, *, #82, .F. ) ;
#233 = ORIENTED_EDGE ( 'NONE', *, *, #205, .F. ) ;
#234 = EDGE_CURVE ( 'NONE', #139, #120, #60, .T. ) ;
#235 = PRODUCT_DEFINITION_FORMATION_WITH_SPECIFIED_SOURCE ( 'LIBOVOLNÝ', '', #28, .NOT_KNOWN. ) ;
#236 = DIRECTION ( 'NONE',  ( -1.000000000000000000, 0.000000000000000000, 0.000000000000000000 ) ) ;
#237 = CARTESIAN_POINT ( 'NONE',  ( 0.000000000000000000, 0.000000000000000000, 132.0000000000000000 ) ) ;
#238 = LOCAL_TIME ( 19, 5, 33.00000000000000000, #208 ) ;
#239 = FACE_OUTER_BOUND ( 'NONE', #122, .T. ) ;
#240 = DIRECTION ( 'NONE',  ( 0.000000000000000000, 0.000000000000000000, 1.000000000000000000 ) ) ;
#241 = EDGE_CURVE ( 'NONE', #120, #41, #181, .T. ) ;
#242 = ORIENTED_EDGE ( 'NONE', *, *, #82, .T. ) ;
#243 = APPROVAL_DATE_TIME ( #73, #23 ) ;
#244 = APPLICATION_PROTOCOL_DEFINITION ( 'international standard', 'config_control_design', 1994, #212 ) ;
#245 = CIRCLE ( 'NONE', #180, 9.000000000000001776 ) ;
#246 = PERSON_AND_ORGANIZATION ( #178, #154 ) ;
#247 = MANIFOLD_SOLID_BREP ( 'Pøidat vysunutím3', #156 ) ;
#248 = CC_DESIGN_APPROVAL ( #21, ( #235 ) ) ;
#249 = CARTESIAN_POINT ( 'NONE',  ( -9.000000000000001776, 0.000000000000000000, 132.0000000000000000 ) ) ;
#250 = EDGE_LOOP ( 'NONE', ( #30, #69 ) ) ;
#251 = CARTESIAN_POINT ( 'NONE',  ( 12.00000000000000178, 1.469576158976824144E-15, 7.000000000000000000 ) ) ;
#252 = ORIENTED_EDGE ( 'NONE', *, *, #176, .F. ) ;
#253 = CC_DESIGN_DATE_AND_TIME_ASSIGNMENT ( #17, #192, ( #63 ) ) ;
#254 = AXIS2_PLACEMENT_3D ( 'NONE', #215, #55, #231 ) ;
#255 = DIRECTION ( 'NONE',  ( 0.000000000000000000, 0.000000000000000000, 1.000000000000000000 ) ) ;
ENDSEC;
END-ISO-10303-21;
