ISO-10303-21;
HEADER;
FILE_DESCRIPTION (( 'STEP AP203' ),
    '1' );
FILE_NAME ('c157.STEP',
    '2023-02-13T15:47:49',
    ( '' ),
    ( '' ),
    'SwSTEP 2.0',
    'SolidWorks 2019',
    '' );
FILE_SCHEMA (( 'CONFIG_CONTROL_DESIGN' ));
ENDSEC;

DATA;
#1 = CARTESIAN_POINT ( 'NONE',  ( 0.000000000000000000, 0.000000000000000000, 3.000000000000000000 ) ) ;
#2 = PRODUCT_DEFINITION_SHAPE ( 'NONE', 'NONE',  #3 ) ;
#3 = PRODUCT_DEFINITION ( 'NEZNÁMÝ', '', #38, #206 ) ;
#4 = APPLICATION_PROTOCOL_DEFINITION ( 'international standard', 'config_control_design', 1994, #83 ) ;
#5 = PERSON_AND_ORGANIZATION_ROLE ( 'creator' ) ;
#6 = ORIENTED_EDGE ( 'NONE', *, *, #226, .F. ) ;
#7 = ORIENTED_EDGE ( 'NONE', *, *, #110, .F. ) ;
#8 = EDGE_LOOP ( 'NONE', ( #26, #69 ) ) ;
#9 = ORIENTED_EDGE ( 'NONE', *, *, #46, .F. ) ;
#10 = MANIFOLD_SOLID_BREP ( 'Pøidat vysunutím3', #34 ) ;
#11 = VERTEX_POINT ( 'NONE', #152 ) ;
#12 = APPROVAL_DATE_TIME ( #113, #15 ) ;
#13 = CC_DESIGN_APPROVAL ( #247, ( #156 ) ) ;
#14 = DIRECTION ( 'NONE',  ( 0.000000000000000000, 0.000000000000000000, 1.000000000000000000 ) ) ;
#15 = APPROVAL ( #237, 'NEURÈENÝ' ) ;
#16 = DIRECTION ( 'NONE',  ( 1.000000000000000000, 0.000000000000000000, 0.000000000000000000 ) ) ;
#17 = PERSON_AND_ORGANIZATION ( #205, #42 ) ;
#18 = CIRCLE ( 'NONE', #244, 2.750000000000000000 ) ;
#19 =( LENGTH_UNIT ( ) NAMED_UNIT ( * ) SI_UNIT ( .MILLI., .METRE. ) );
#20 = ADVANCED_FACE ( 'NONE', ( #148 ), #30, .T. ) ;
#21 = DIRECTION ( 'NONE',  ( -0.000000000000000000, -0.000000000000000000, -1.000000000000000000 ) ) ;
#22 = PLANE ( 'NONE',  #91 ) ;
#23 = CIRCLE ( 'NONE', #190, 5.000000000000000000 ) ;
#24 = ORIENTED_EDGE ( 'NONE', *, *, #185, .F. ) ;
#25 = UNCERTAINTY_MEASURE_WITH_UNIT (LENGTH_MEASURE( 1.000000000000000082E-05 ), #19, 'distance_accuracy_value', 'NONE');
#26 = ORIENTED_EDGE ( 'NONE', *, *, #122, .T. ) ;
#27 = ORIENTED_EDGE ( 'NONE', *, *, #188, .T. ) ;
#28 = DIRECTION ( 'NONE',  ( 0.000000000000000000, 0.000000000000000000, 1.000000000000000000 ) ) ;
#29 = CARTESIAN_POINT ( 'NONE',  ( 0.000000000000000000, 0.000000000000000000, 3.000000000000000000 ) ) ;
#30 = PLANE ( 'NONE',  #71 ) ;
#31 = CARTESIAN_POINT ( 'NONE',  ( 0.000000000000000000, 0.000000000000000000, 100.0000000000000000 ) ) ;
#32 = DIRECTION ( 'NONE',  ( -1.000000000000000000, 0.000000000000000000, 0.000000000000000000 ) ) ;
#33 = PRODUCT ( 'c157', 'c157', '', ( #167 ) ) ;
#34 = CLOSED_SHELL ( 'NONE', ( #168, #203, #68, #140, #207, #158, #20 ) ) ;
#35 = DIRECTION ( 'NONE',  ( 0.000000000000000000, 0.000000000000000000, 1.000000000000000000 ) ) ;
#36 = SHAPE_DEFINITION_REPRESENTATION ( #2, #51 ) ;
#37 = DIRECTION ( 'NONE',  ( 1.000000000000000000, 0.000000000000000000, 0.000000000000000000 ) ) ;
#38 = PRODUCT_DEFINITION_FORMATION_WITH_SPECIFIED_SOURCE ( 'LIBOVOLNÝ', '', #33, .NOT_KNOWN. ) ;
#39 = APPROVAL_STATUS ( 'not_yet_approved' ) ;
#40 = CIRCLE ( 'NONE', #240, 5.000000000000000000 ) ;
#41 = APPROVAL_ROLE ( '' ) ;
#42 = ORGANIZATION ( 'NEURÈENÝ', 'NEURÈENÝ', '' ) ;
#43 = VECTOR ( 'NONE', #230, 1000.000000000000000 ) ;
#44 = DATE_AND_TIME ( #144, #61 ) ;
#45 = COORDINATED_UNIVERSAL_TIME_OFFSET ( 1, 0, .AHEAD. ) ;
#46 = EDGE_CURVE ( 'NONE', #176, #239, #18, .T. ) ;
#47 = DIRECTION ( 'NONE',  ( 1.000000000000000000, 0.000000000000000000, -0.000000000000000000 ) ) ;
#48 = VERTEX_POINT ( 'NONE', #126 ) ;
#49 = AXIS2_PLACEMENT_3D ( 'NONE', #214, #81, #159 ) ;
#50 = DIRECTION ( 'NONE',  ( 1.000000000000000000, 0.000000000000000000, 0.000000000000000000 ) ) ;
#51 = ADVANCED_BREP_SHAPE_REPRESENTATION ( 'c157', ( #10, #104 ), #215 ) ;
#52 = EDGE_LOOP ( 'NONE', ( #6, #107, #182, #150 ) ) ;
#53 = DIRECTION ( 'NONE',  ( 1.000000000000000000, 0.000000000000000000, -0.000000000000000000 ) ) ;
#54 = PLANE ( 'NONE',  #222 ) ;
#55 = DATE_AND_TIME ( #59, #80 ) ;
#56 = APPROVAL_PERSON_ORGANIZATION ( #142, #172, #41 ) ;
#57 = CARTESIAN_POINT ( 'NONE',  ( 5.000000000000000000, 6.123233995736766282E-16, 3.000000000000000000 ) ) ;
#58 =( NAMED_UNIT ( * ) PLANE_ANGLE_UNIT ( ) SI_UNIT ( $, .RADIAN. ) );
#59 = CALENDAR_DATE ( 2023, 13, 2 ) ;
#60 = CIRCLE ( 'NONE', #201, 5.000000000000000000 ) ;
#61 = LOCAL_TIME ( 16, 47, 49.00000000000000000, #184 ) ;
#62 = DATE_TIME_ROLE ( 'classification_date' ) ;
#63 = PERSON_AND_ORGANIZATION ( #205, #42 ) ;
#64 = CC_DESIGN_PERSON_AND_ORGANIZATION_ASSIGNMENT ( #17, #253, ( #156 ) ) ;
#65 = APPROVAL_ROLE ( '' ) ;
#66 = APPLICATION_PROTOCOL_DEFINITION ( 'international standard', 'config_control_design', 1994, #143 ) ;
#67 = EDGE_CURVE ( 'NONE', #109, #48, #149, .T. ) ;
#68 = ADVANCED_FACE ( 'NONE', ( #128 ), #209, .T. ) ;
#69 = ORIENTED_EDGE ( 'NONE', *, *, #77, .T. ) ;
#70 = ORIENTED_EDGE ( 'NONE', *, *, #94, .F. ) ;
#71 = AXIS2_PLACEMENT_3D ( 'NONE', #224, #227, #47 ) ;
#72 = CARTESIAN_POINT ( 'NONE',  ( 0.000000000000000000, 0.000000000000000000, 0.000000000000000000 ) ) ;
#73 = VECTOR ( 'NONE', #99, 1000.000000000000000 ) ;
#74 = EDGE_LOOP ( 'NONE', ( #192, #193, #246, #187 ) ) ;
#75 = PERSON_AND_ORGANIZATION ( #205, #42 ) ;
#76 = LINE ( 'NONE', #178, #43 ) ;
#77 = EDGE_CURVE ( 'NONE', #212, #109, #40, .T. ) ;
#78 = CIRCLE ( 'NONE', #250, 2.750000000000000000 ) ;
#79 = CYLINDRICAL_SURFACE ( 'NONE', #132, 5.000000000000000000 ) ;
#80 = LOCAL_TIME ( 16, 47, 49.00000000000000000, #233 ) ;
#81 = DIRECTION ( 'NONE',  ( 0.000000000000000000, 0.000000000000000000, 1.000000000000000000 ) ) ;
#82 = PERSON_AND_ORGANIZATION ( #205, #42 ) ;
#83 = APPLICATION_CONTEXT ( 'configuration controlled 3d designs of mechanical parts and assemblies' ) ;
#84 = CYLINDRICAL_SURFACE ( 'NONE', #86, 2.750000000000000000 ) ;
#85 = PERSON_AND_ORGANIZATION_ROLE ( 'design_supplier' ) ;
#86 = AXIS2_PLACEMENT_3D ( 'NONE', #217, #234, #32 ) ;
#87 = EDGE_CURVE ( 'NONE', #93, #48, #23, .T. ) ;
#88 = EDGE_LOOP ( 'NONE', ( #24, #229 ) ) ;
#89 = PRODUCT_RELATED_PRODUCT_CATEGORY ( 'detail', '', ( #33 ) ) ;
#90 = ORIENTED_EDGE ( 'NONE', *, *, #188, .F. ) ;
#91 = AXIS2_PLACEMENT_3D ( 'NONE', #254, #118, #53 ) ;
#92 = ORIENTED_EDGE ( 'NONE', *, *, #114, .F. ) ;
#93 = VERTEX_POINT ( 'NONE', #129 ) ;
#94 = EDGE_CURVE ( 'NONE', #11, #213, #78, .T. ) ;
#95 = DIRECTION ( 'NONE',  ( -0.000000000000000000, -0.000000000000000000, -1.000000000000000000 ) ) ;
#96 = EDGE_LOOP ( 'NONE', ( #70, #27, #194, #92 ) ) ;
#97 = FACE_OUTER_BOUND ( 'NONE', #96, .T. ) ;
#98 = EDGE_CURVE ( 'NONE', #213, #11, #170, .T. ) ;
#99 = DIRECTION ( 'NONE',  ( -0.000000000000000000, -0.000000000000000000, -1.000000000000000000 ) ) ;
#100 = FACE_OUTER_BOUND ( 'NONE', #74, .T. ) ;
#101 = DIRECTION ( 'NONE',  ( -0.000000000000000000, -0.000000000000000000, -1.000000000000000000 ) ) ;
#102 = CC_DESIGN_PERSON_AND_ORGANIZATION_ASSIGNMENT ( #204, #5, ( #3 ) ) ;
#103 = CIRCLE ( 'NONE', #49, 2.750000000000000000 ) ;
#104 = AXIS2_PLACEMENT_3D ( 'NONE', #164, #163, #236 ) ;
#105 = AXIS2_PLACEMENT_3D ( 'NONE', #31, #101, #195 ) ;
#106 = ORIENTED_EDGE ( 'NONE', *, *, #98, .F. ) ;
#107 = ORIENTED_EDGE ( 'NONE', *, *, #122, .F. ) ;
#108 = CC_DESIGN_PERSON_AND_ORGANIZATION_ASSIGNMENT ( #162, #85, ( #38 ) ) ;
#109 = VERTEX_POINT ( 'NONE', #248 ) ;
#110 = EDGE_CURVE ( 'NONE', #239, #176, #103, .T. ) ;
#111 = DIRECTION ( 'NONE',  ( 1.000000000000000000, 0.000000000000000000, 0.000000000000000000 ) ) ;
#112 = CARTESIAN_POINT ( 'NONE',  ( 0.000000000000000000, 0.000000000000000000, 100.0000000000000000 ) ) ;
#113 = DATE_AND_TIME ( #166, #202 ) ;
#114 = EDGE_CURVE ( 'NONE', #213, #176, #255, .T. ) ;
#115 = FACE_OUTER_BOUND ( 'NONE', #8, .T. ) ;
#116 = CARTESIAN_POINT ( 'NONE',  ( 0.000000000000000000, 0.000000000000000000, 100.0000000000000000 ) ) ;
#117 = VECTOR ( 'NONE', #21, 1000.000000000000000 ) ;
#118 = DIRECTION ( 'NONE',  ( 0.000000000000000000, 0.000000000000000000, 1.000000000000000000 ) ) ;
#119 = CARTESIAN_POINT ( 'NONE',  ( -2.750000000000000000, 0.000000000000000000, 3.000000000000000000 ) ) ;
#120 = APPROVAL_STATUS ( 'not_yet_approved' ) ;
#121 = CIRCLE ( 'NONE', #136, 5.000000000000000000 ) ;
#122 = EDGE_CURVE ( 'NONE', #109, #212, #60, .T. ) ;
#123 = APPROVAL_PERSON_ORGANIZATION ( #145, #15, #65 ) ;
#124 = APPROVAL_DATE_TIME ( #44, #172 ) ;
#125 = CARTESIAN_POINT ( 'NONE',  ( 0.000000000000000000, 0.000000000000000000, 3.000000000000000000 ) ) ;
#126 = CARTESIAN_POINT ( 'NONE',  ( -5.000000000000000000, 0.000000000000000000, 0.000000000000000000 ) ) ;
#127 = CARTESIAN_POINT ( 'NONE',  ( -5.000000000000000000, 0.000000000000000000, 3.000000000000000000 ) ) ;
#128 = FACE_OUTER_BOUND ( 'NONE', #52, .T. ) ;
#129 = CARTESIAN_POINT ( 'NONE',  ( 5.000000000000000000, 6.123233995736766282E-16, 0.000000000000000000 ) ) ;
#130 = DIRECTION ( 'NONE',  ( 0.000000000000000000, 0.000000000000000000, 1.000000000000000000 ) ) ;
#131 = LINE ( 'NONE', #133, #73 ) ;
#132 = AXIS2_PLACEMENT_3D ( 'NONE', #199, #137, #154 ) ;
#133 = CARTESIAN_POINT ( 'NONE',  ( 5.000000000000000000, 6.123233995736766282E-16, 3.000000000000000000 ) ) ;
#134 = DIRECTION ( 'NONE',  ( 1.000000000000000000, 0.000000000000000000, 0.000000000000000000 ) ) ;
#135 = CC_DESIGN_PERSON_AND_ORGANIZATION_ASSIGNMENT ( #63, #141, ( #33 ) ) ;
#136 = AXIS2_PLACEMENT_3D ( 'NONE', #177, #251, #179 ) ;
#137 = DIRECTION ( 'NONE',  ( -0.000000000000000000, -0.000000000000000000, -1.000000000000000000 ) ) ;
#138 = CC_DESIGN_SECURITY_CLASSIFICATION ( #156, ( #38 ) ) ;
#139 = APPROVAL_DATE_TIME ( #55, #247 ) ;
#140 = ADVANCED_FACE ( 'NONE', ( #153, #115 ), #22, .T. ) ;
#141 = PERSON_AND_ORGANIZATION_ROLE ( 'design_owner' ) ;
#142 = PERSON_AND_ORGANIZATION ( #205, #42 ) ;
#143 = APPLICATION_CONTEXT ( 'configuration controlled 3d designs of mechanical parts and assemblies' ) ;
#144 = CALENDAR_DATE ( 2023, 13, 2 ) ;
#145 = PERSON_AND_ORGANIZATION ( #205, #42 ) ;
#146 = DATE_TIME_ROLE ( 'creation_date' ) ;
#147 = CC_DESIGN_DATE_AND_TIME_ASSIGNMENT ( #235, #62, ( #156 ) ) ;
#148 = FACE_OUTER_BOUND ( 'NONE', #189, .T. ) ;
#149 = LINE ( 'NONE', #127, #175 ) ;
#150 = ORIENTED_EDGE ( 'NONE', *, *, #185, .T. ) ;
#151 = DIRECTION ( 'NONE',  ( 0.000000000000000000, 0.000000000000000000, 1.000000000000000000 ) ) ;
#152 = CARTESIAN_POINT ( 'NONE',  ( 2.750000000000000000, 3.367778697655220519E-16, 100.0000000000000000 ) ) ;
#153 = FACE_BOUND ( 'NONE', #243, .T. ) ;
#154 = DIRECTION ( 'NONE',  ( -1.000000000000000000, 0.000000000000000000, 0.000000000000000000 ) ) ;
#155 = APPROVAL_ROLE ( '' ) ;
#156 = SECURITY_CLASSIFICATION ( '', '', #221 ) ;
#157 = CC_DESIGN_APPROVAL ( #15, ( #38 ) ) ;
#158 = ADVANCED_FACE ( 'NONE', ( #160 ), #84, .T. ) ;
#159 = DIRECTION ( 'NONE',  ( 1.000000000000000000, 0.000000000000000000, 0.000000000000000000 ) ) ;
#160 = FACE_OUTER_BOUND ( 'NONE', #171, .T. ) ;
#161 =( NAMED_UNIT ( * ) SI_UNIT ( $, .STERADIAN. ) SOLID_ANGLE_UNIT ( ) );
#162 = PERSON_AND_ORGANIZATION ( #205, #42 ) ;
#163 = DIRECTION ( 'NONE',  ( 0.000000000000000000, 0.000000000000000000, 1.000000000000000000 ) ) ;
#164 = CARTESIAN_POINT ( 'NONE',  ( 0.000000000000000000, 0.000000000000000000, 0.000000000000000000 ) ) ;
#165 = AXIS2_PLACEMENT_3D ( 'NONE', #116, #14, #134 ) ;
#166 = CALENDAR_DATE ( 2023, 13, 2 ) ;
#167 = MECHANICAL_CONTEXT ( 'NONE', #83, 'mechanical' ) ;
#168 = ADVANCED_FACE ( 'NONE', ( #97 ), #231, .T. ) ;
#169 = DATE_AND_TIME ( #223, #196 ) ;
#170 = CIRCLE ( 'NONE', #165, 2.750000000000000000 ) ;
#171 = EDGE_LOOP ( 'NONE', ( #90, #106, #173, #225 ) ) ;
#172 = APPROVAL ( #39, 'NEURÈENÝ' ) ;
#173 = ORIENTED_EDGE ( 'NONE', *, *, #114, .T. ) ;
#174 = DIRECTION ( 'NONE',  ( -1.000000000000000000, 0.000000000000000000, 0.000000000000000000 ) ) ;
#175 = VECTOR ( 'NONE', #95, 1000.000000000000000 ) ;
#176 = VERTEX_POINT ( 'NONE', #119 ) ;
#177 = CARTESIAN_POINT ( 'NONE',  ( 0.000000000000000000, 0.000000000000000000, 0.000000000000000000 ) ) ;
#178 = CARTESIAN_POINT ( 'NONE',  ( 2.750000000000000000, 3.367778697655220519E-16, 100.0000000000000000 ) ) ;
#179 = DIRECTION ( 'NONE',  ( 1.000000000000000000, 0.000000000000000000, 0.000000000000000000 ) ) ;
#180 = DIRECTION ( 'NONE',  ( 1.000000000000000000, 0.000000000000000000, -0.000000000000000000 ) ) ;
#181 = CALENDAR_DATE ( 2023, 13, 2 ) ;
#182 = ORIENTED_EDGE ( 'NONE', *, *, #67, .T. ) ;
#183 = CC_DESIGN_DATE_AND_TIME_ASSIGNMENT ( #169, #146, ( #3 ) ) ;
#184 = COORDINATED_UNIVERSAL_TIME_OFFSET ( 1, 0, .AHEAD. ) ;
#185 = EDGE_CURVE ( 'NONE', #48, #93, #121, .T. ) ;
#186 = LOCAL_TIME ( 16, 47, 49.00000000000000000, #249 ) ;
#187 = ORIENTED_EDGE ( 'NONE', *, *, #67, .F. ) ;
#188 = EDGE_CURVE ( 'NONE', #11, #239, #76, .T. ) ;
#189 = EDGE_LOOP ( 'NONE', ( #210, #242 ) ) ;
#190 = AXIS2_PLACEMENT_3D ( 'NONE', #72, #151, #228 ) ;
#191 = CARTESIAN_POINT ( 'NONE',  ( 0.000000000000000000, 0.000000000000000000, 3.000000000000000000 ) ) ;
#192 = ORIENTED_EDGE ( 'NONE', *, *, #77, .F. ) ;
#193 = ORIENTED_EDGE ( 'NONE', *, *, #226, .T. ) ;
#194 = ORIENTED_EDGE ( 'NONE', *, *, #110, .T. ) ;
#195 = DIRECTION ( 'NONE',  ( -1.000000000000000000, 0.000000000000000000, 0.000000000000000000 ) ) ;
#196 = LOCAL_TIME ( 16, 47, 49.00000000000000000, #238 ) ;
#197 = PERSON_AND_ORGANIZATION_ROLE ( 'creator' ) ;
#198 = FACE_OUTER_BOUND ( 'NONE', #88, .T. ) ;
#199 = CARTESIAN_POINT ( 'NONE',  ( 0.000000000000000000, 0.000000000000000000, 3.000000000000000000 ) ) ;
#200 = CARTESIAN_POINT ( 'NONE',  ( 0.000000000000000000, 0.000000000000000000, 0.000000000000000000 ) ) ;
#201 = AXIS2_PLACEMENT_3D ( 'NONE', #1, #130, #37 ) ;
#202 = LOCAL_TIME ( 16, 47, 49.00000000000000000, #45 ) ;
#203 = ADVANCED_FACE ( 'NONE', ( #100 ), #79, .T. ) ;
#204 = PERSON_AND_ORGANIZATION ( #205, #42 ) ;
#205 = PERSON ( 'NEURÈENÝ', 'NEURÈENÝ', 'NEURÈENÝ', ('NEURÈENÝ'), ('NEURÈENÝ'), ('NEURÈENÝ') ) ;
#206 = DESIGN_CONTEXT ( 'detailed design', #143, 'design' ) ;
#207 = ADVANCED_FACE ( 'NONE', ( #198 ), #54, .F. ) ;
#208 = DIRECTION ( 'NONE',  ( 0.000000000000000000, 0.000000000000000000, 1.000000000000000000 ) ) ;
#209 = CYLINDRICAL_SURFACE ( 'NONE', #218, 5.000000000000000000 ) ;
#210 = ORIENTED_EDGE ( 'NONE', *, *, #98, .T. ) ;
#211 = CC_DESIGN_APPROVAL ( #172, ( #3 ) ) ;
#212 = VERTEX_POINT ( 'NONE', #57 ) ;
#213 = VERTEX_POINT ( 'NONE', #232 ) ;
#214 = CARTESIAN_POINT ( 'NONE',  ( 0.000000000000000000, 0.000000000000000000, 3.000000000000000000 ) ) ;
#215 =( GEOMETRIC_REPRESENTATION_CONTEXT ( 3 ) GLOBAL_UNCERTAINTY_ASSIGNED_CONTEXT ( ( #25 ) ) GLOBAL_UNIT_ASSIGNED_CONTEXT ( ( #19, #58, #161 ) ) REPRESENTATION_CONTEXT ( 'NONE', 'WORKASPACE' ) );
#216 = CARTESIAN_POINT ( 'NONE',  ( 2.750000000000000000, 3.367778697655220519E-16, 3.000000000000000000 ) ) ;
#217 = CARTESIAN_POINT ( 'NONE',  ( 0.000000000000000000, 0.000000000000000000, 100.0000000000000000 ) ) ;
#218 = AXIS2_PLACEMENT_3D ( 'NONE', #191, #245, #174 ) ;
#219 = CARTESIAN_POINT ( 'NONE',  ( -2.750000000000000000, 0.000000000000000000, 100.0000000000000000 ) ) ;
#220 = APPROVAL_PERSON_ORGANIZATION ( #82, #247, #155 ) ;
#221 = SECURITY_CLASSIFICATION_LEVEL ( 'unclassified' ) ;
#222 = AXIS2_PLACEMENT_3D ( 'NONE', #200, #35, #180 ) ;
#223 = CALENDAR_DATE ( 2023, 13, 2 ) ;
#224 = CARTESIAN_POINT ( 'NONE',  ( 0.000000000000000000, 0.000000000000000000, 100.0000000000000000 ) ) ;
#225 = ORIENTED_EDGE ( 'NONE', *, *, #46, .T. ) ;
#226 = EDGE_CURVE ( 'NONE', #212, #93, #131, .T. ) ;
#227 = DIRECTION ( 'NONE',  ( 0.000000000000000000, 0.000000000000000000, 1.000000000000000000 ) ) ;
#228 = DIRECTION ( 'NONE',  ( 1.000000000000000000, 0.000000000000000000, 0.000000000000000000 ) ) ;
#229 = ORIENTED_EDGE ( 'NONE', *, *, #87, .F. ) ;
#230 = DIRECTION ( 'NONE',  ( -0.000000000000000000, -0.000000000000000000, -1.000000000000000000 ) ) ;
#231 = CYLINDRICAL_SURFACE ( 'NONE', #105, 2.750000000000000000 ) ;
#232 = CARTESIAN_POINT ( 'NONE',  ( -2.750000000000000000, 0.000000000000000000, 100.0000000000000000 ) ) ;
#233 = COORDINATED_UNIVERSAL_TIME_OFFSET ( 1, 0, .AHEAD. ) ;
#234 = DIRECTION ( 'NONE',  ( -0.000000000000000000, -0.000000000000000000, -1.000000000000000000 ) ) ;
#235 = DATE_AND_TIME ( #181, #186 ) ;
#236 = DIRECTION ( 'NONE',  ( 1.000000000000000000, 0.000000000000000000, 0.000000000000000000 ) ) ;
#237 = APPROVAL_STATUS ( 'not_yet_approved' ) ;
#238 = COORDINATED_UNIVERSAL_TIME_OFFSET ( 1, 0, .AHEAD. ) ;
#239 = VERTEX_POINT ( 'NONE', #216 ) ;
#240 = AXIS2_PLACEMENT_3D ( 'NONE', #29, #28, #111 ) ;
#241 = DIRECTION ( 'NONE',  ( 0.000000000000000000, 0.000000000000000000, 1.000000000000000000 ) ) ;
#242 = ORIENTED_EDGE ( 'NONE', *, *, #94, .T. ) ;
#243 = EDGE_LOOP ( 'NONE', ( #9, #7 ) ) ;
#244 = AXIS2_PLACEMENT_3D ( 'NONE', #125, #241, #50 ) ;
#245 = DIRECTION ( 'NONE',  ( -0.000000000000000000, -0.000000000000000000, -1.000000000000000000 ) ) ;
#246 = ORIENTED_EDGE ( 'NONE', *, *, #87, .T. ) ;
#247 = APPROVAL ( #120, 'NEURÈENÝ' ) ;
#248 = CARTESIAN_POINT ( 'NONE',  ( -5.000000000000000000, 0.000000000000000000, 3.000000000000000000 ) ) ;
#249 = COORDINATED_UNIVERSAL_TIME_OFFSET ( 1, 0, .AHEAD. ) ;
#250 = AXIS2_PLACEMENT_3D ( 'NONE', #112, #208, #16 ) ;
#251 = DIRECTION ( 'NONE',  ( 0.000000000000000000, 0.000000000000000000, 1.000000000000000000 ) ) ;
#252 = CC_DESIGN_PERSON_AND_ORGANIZATION_ASSIGNMENT ( #75, #197, ( #38 ) ) ;
#253 = PERSON_AND_ORGANIZATION_ROLE ( 'classification_officer' ) ;
#254 = CARTESIAN_POINT ( 'NONE',  ( 0.000000000000000000, 0.000000000000000000, 3.000000000000000000 ) ) ;
#255 = LINE ( 'NONE', #219, #117 ) ;
ENDSEC;
END-ISO-10303-21;
