ISO-10303-21;
HEADER;
FILE_DESCRIPTION (( 'STEP AP203' ),
    '1' );
FILE_NAME ('8e80.STEP',
    '2022-07-07T17:31:13',
    ( '' ),
    ( '' ),
    'SwSTEP 2.0',
    'SolidWorks 2019',
    '' );
FILE_SCHEMA (( 'CONFIG_CONTROL_DESIGN' ));
ENDSEC;

DATA;
#1 = CARTESIAN_POINT ( 'NONE',  ( 0.000000000000000000, 0.000000000000000000, 5.000000000000000000 ) ) ;
#2 = DIRECTION ( 'NONE',  ( -0.000000000000000000, -0.000000000000000000, -1.000000000000000000 ) ) ;
#3 = AXIS2_PLACEMENT_3D ( 'NONE', #235, #58, #114 ) ;
#4 = APPROVAL_PERSON_ORGANIZATION ( #11, #51, #150 ) ;
#5 = DIRECTION ( 'NONE',  ( 0.000000000000000000, 0.000000000000000000, 1.000000000000000000 ) ) ;
#6 = PRODUCT_DEFINITION_SHAPE ( 'NONE', 'NONE',  #211 ) ;
#7 = DIRECTION ( 'NONE',  ( 1.000000000000000000, 0.000000000000000000, 0.000000000000000000 ) ) ;
#8 =( LENGTH_UNIT ( ) NAMED_UNIT ( * ) SI_UNIT ( .MILLI., .METRE. ) );
#9 = ADVANCED_BREP_SHAPE_REPRESENTATION ( '8e80', ( #50, #33 ), #102 ) ;
#10 = COORDINATED_UNIVERSAL_TIME_OFFSET ( 1, 0, .AHEAD. ) ;
#11 = PERSON_AND_ORGANIZATION ( #163, #57 ) ;
#12 = PERSON_AND_ORGANIZATION_ROLE ( 'creator' ) ;
#13 = CIRCLE ( 'NONE', #188, 7.000000000000000000 ) ;
#14 = AXIS2_PLACEMENT_3D ( 'NONE', #66, #5, #165 ) ;
#15 = CARTESIAN_POINT ( 'NONE',  ( -7.000000000000000000, 0.000000000000000000, 5.000000000000000000 ) ) ;
#16 = DIRECTION ( 'NONE',  ( 0.000000000000000000, 0.000000000000000000, 1.000000000000000000 ) ) ;
#17 = DIRECTION ( 'NONE',  ( -1.000000000000000000, 0.000000000000000000, 0.000000000000000000 ) ) ;
#18 = ORIENTED_EDGE ( 'NONE', *, *, #167, .T. ) ;
#19 = VECTOR ( 'NONE', #23, 1000.000000000000000 ) ;
#20 = DIRECTION ( 'NONE',  ( 0.000000000000000000, 0.000000000000000000, 1.000000000000000000 ) ) ;
#21 = DIRECTION ( 'NONE',  ( 1.000000000000000000, 0.000000000000000000, 0.000000000000000000 ) ) ;
#22 = CC_DESIGN_APPROVAL ( #51, ( #131 ) ) ;
#23 = DIRECTION ( 'NONE',  ( -0.000000000000000000, -0.000000000000000000, -1.000000000000000000 ) ) ;
#24 = CC_DESIGN_PERSON_AND_ORGANIZATION_ASSIGNMENT ( #192, #107, ( #83 ) ) ;
#25 = AXIS2_PLACEMENT_3D ( 'NONE', #1, #80, #38 ) ;
#26 = CARTESIAN_POINT ( 'NONE',  ( -7.000000000000000000, 0.000000000000000000, 5.000000000000000000 ) ) ;
#27 = PERSON_AND_ORGANIZATION ( #163, #57 ) ;
#28 = CARTESIAN_POINT ( 'NONE',  ( 0.000000000000000000, 0.000000000000000000, 5.000000000000000000 ) ) ;
#29 = APPROVAL_DATE_TIME ( #87, #129 ) ;
#30 = CALENDAR_DATE ( 2022, 7, 7 ) ;
#31 = APPROVAL_STATUS ( 'not_yet_approved' ) ;
#32 = APPLICATION_PROTOCOL_DEFINITION ( 'international standard', 'config_control_design', 1994, #244 ) ;
#33 = AXIS2_PLACEMENT_3D ( 'NONE', #210, #127, #151 ) ;
#34 = PRODUCT_RELATED_PRODUCT_CATEGORY ( 'detail', '', ( #141 ) ) ;
#35 = VERTEX_POINT ( 'NONE', #236 ) ;
#36 = CIRCLE ( 'NONE', #177, 4.099999999999999645 ) ;
#37 = DIRECTION ( 'NONE',  ( -0.000000000000000000, -0.000000000000000000, -1.000000000000000000 ) ) ;
#38 = DIRECTION ( 'NONE',  ( 1.000000000000000000, 0.000000000000000000, -0.000000000000000000 ) ) ;
#39 = DIRECTION ( 'NONE',  ( 0.000000000000000000, 0.000000000000000000, 1.000000000000000000 ) ) ;
#40 = VERTEX_POINT ( 'NONE', #201 ) ;
#41 = CARTESIAN_POINT ( 'NONE',  ( -7.000000000000000000, 0.000000000000000000, 0.000000000000000000 ) ) ;
#42 = DIRECTION ( 'NONE',  ( 0.000000000000000000, 0.000000000000000000, 1.000000000000000000 ) ) ;
#43 = CC_DESIGN_PERSON_AND_ORGANIZATION_ASSIGNMENT ( #228, #47, ( #131 ) ) ;
#44 = LINE ( 'NONE', #144, #79 ) ;
#45 = PLANE ( 'NONE',  #212 ) ;
#46 = MECHANICAL_CONTEXT ( 'NONE', #143, 'mechanical' ) ;
#47 = PERSON_AND_ORGANIZATION_ROLE ( 'classification_officer' ) ;
#48 = ADVANCED_FACE ( 'NONE', ( #180 ), #153, .T. ) ;
#49 = SHAPE_DEFINITION_REPRESENTATION ( #6, #9 ) ;
#50 = MANIFOLD_SOLID_BREP ( 'Pøidat vysunutím3', #226 ) ;
#51 = APPROVAL ( #31, 'NEURÈENÝ' ) ;
#52 = ORIENTED_EDGE ( 'NONE', *, *, #219, .F. ) ;
#53 = VERTEX_POINT ( 'NONE', #78 ) ;
#54 = ORIENTED_EDGE ( 'NONE', *, *, #255, .F. ) ;
#55 = EDGE_LOOP ( 'NONE', ( #139, #185 ) ) ;
#56 = ADVANCED_FACE ( 'NONE', ( #218 ), #138, .T. ) ;
#57 = ORGANIZATION ( 'NEURÈENÝ', 'NEURÈENÝ', '' ) ;
#58 = DIRECTION ( 'NONE',  ( -0.000000000000000000, -0.000000000000000000, -1.000000000000000000 ) ) ;
#59 = CARTESIAN_POINT ( 'NONE',  ( 0.000000000000000000, 0.000000000000000000, 5.000000000000000000 ) ) ;
#60 = VECTOR ( 'NONE', #170, 1000.000000000000000 ) ;
#61 = EDGE_LOOP ( 'NONE', ( #132, #217, #179, #159 ) ) ;
#62 = ADVANCED_FACE ( 'NONE', ( #99 ), #254, .T. ) ;
#63 = PLANE ( 'NONE',  #223 ) ;
#64 = CC_DESIGN_PERSON_AND_ORGANIZATION_ASSIGNMENT ( #172, #231, ( #83 ) ) ;
#65 = DIRECTION ( 'NONE',  ( 0.000000000000000000, 0.000000000000000000, 1.000000000000000000 ) ) ;
#66 = CARTESIAN_POINT ( 'NONE',  ( 0.000000000000000000, 0.000000000000000000, 505.0000000000000000 ) ) ;
#67 = CIRCLE ( 'NONE', #14, 4.099999999999999645 ) ;
#68 = CARTESIAN_POINT ( 'NONE',  ( 0.000000000000000000, 0.000000000000000000, 5.000000000000000000 ) ) ;
#69 = DATE_TIME_ROLE ( 'classification_date' ) ;
#70 = APPROVAL_DATE_TIME ( #105, #124 ) ;
#71 = VECTOR ( 'NONE', #123, 1000.000000000000000 ) ;
#72 = APPROVAL_DATE_TIME ( #247, #51 ) ;
#73 = COORDINATED_UNIVERSAL_TIME_OFFSET ( 1, 0, .AHEAD. ) ;
#74 = EDGE_LOOP ( 'NONE', ( #162, #113, #81, #253 ) ) ;
#75 = CIRCLE ( 'NONE', #252, 7.000000000000000000 ) ;
#76 = FACE_OUTER_BOUND ( 'NONE', #55, .T. ) ;
#77 = EDGE_LOOP ( 'NONE', ( #251, #237 ) ) ;
#78 = CARTESIAN_POINT ( 'NONE',  ( 7.000000000000000000, 8.572527594031473190E-16, 0.000000000000000000 ) ) ;
#79 = VECTOR ( 'NONE', #120, 1000.000000000000000 ) ;
#80 = DIRECTION ( 'NONE',  ( 0.000000000000000000, 0.000000000000000000, 1.000000000000000000 ) ) ;
#81 = ORIENTED_EDGE ( 'NONE', *, *, #255, .T. ) ;
#82 = CC_DESIGN_PERSON_AND_ORGANIZATION_ASSIGNMENT ( #148, #109, ( #141 ) ) ;
#83 = PRODUCT_DEFINITION_FORMATION_WITH_SPECIFIED_SOURCE ( 'LIBOVOLNÝ', '', #141, .NOT_KNOWN. ) ;
#84 = CARTESIAN_POINT ( 'NONE',  ( 7.000000000000000000, 8.572527594031473190E-16, 5.000000000000000000 ) ) ;
#85 = LINE ( 'NONE', #224, #71 ) ;
#86 = CC_DESIGN_APPROVAL ( #124, ( #83 ) ) ;
#87 = DATE_AND_TIME ( #213, #198 ) ;
#88 = DATE_TIME_ROLE ( 'creation_date' ) ;
#89 = AXIS2_PLACEMENT_3D ( 'NONE', #59, #2, #140 ) ;
#90 = COORDINATED_UNIVERSAL_TIME_OFFSET ( 1, 0, .AHEAD. ) ;
#91 = APPROVAL_ROLE ( '' ) ;
#92 = ORIENTED_EDGE ( 'NONE', *, *, #98, .T. ) ;
#93 = CARTESIAN_POINT ( 'NONE',  ( 7.000000000000000000, 8.572527594031473190E-16, 5.000000000000000000 ) ) ;
#94 = EDGE_CURVE ( 'NONE', #53, #199, #155, .T. ) ;
#95 = ORIENTED_EDGE ( 'NONE', *, *, #243, .T. ) ;
#96 = VERTEX_POINT ( 'NONE', #15 ) ;
#97 = CARTESIAN_POINT ( 'NONE',  ( 0.000000000000000000, 0.000000000000000000, 0.000000000000000000 ) ) ;
#98 = EDGE_CURVE ( 'NONE', #199, #53, #75, .T. ) ;
#99 = FACE_OUTER_BOUND ( 'NONE', #134, .T. ) ;
#100 = CIRCLE ( 'NONE', #136, 4.099999999999999645 ) ;
#101 = DIRECTION ( 'NONE',  ( 1.000000000000000000, 0.000000000000000000, -0.000000000000000000 ) ) ;
#102 =( GEOMETRIC_REPRESENTATION_CONTEXT ( 3 ) GLOBAL_UNCERTAINTY_ASSIGNED_CONTEXT ( ( #154 ) ) GLOBAL_UNIT_ASSIGNED_CONTEXT ( ( #8, #103, #146 ) ) REPRESENTATION_CONTEXT ( 'NONE', 'WORKASPACE' ) );
#103 =( NAMED_UNIT ( * ) PLANE_ANGLE_UNIT ( ) SI_UNIT ( $, .RADIAN. ) );
#104 = CARTESIAN_POINT ( 'NONE',  ( 0.000000000000000000, 0.000000000000000000, 505.0000000000000000 ) ) ;
#105 = DATE_AND_TIME ( #230, #115 ) ;
#106 = CC_DESIGN_APPROVAL ( #129, ( #211 ) ) ;
#107 = PERSON_AND_ORGANIZATION_ROLE ( 'design_supplier' ) ;
#108 = CC_DESIGN_DATE_AND_TIME_ASSIGNMENT ( #208, #88, ( #211 ) ) ;
#109 = PERSON_AND_ORGANIZATION_ROLE ( 'design_owner' ) ;
#110 = VERTEX_POINT ( 'NONE', #93 ) ;
#111 = AXIS2_PLACEMENT_3D ( 'NONE', #202, #37, #17 ) ;
#112 = ADVANCED_FACE ( 'NONE', ( #184, #76 ), #221, .T. ) ;
#113 = ORIENTED_EDGE ( 'NONE', *, *, #249, .F. ) ;
#114 = DIRECTION ( 'NONE',  ( -1.000000000000000000, 0.000000000000000000, 0.000000000000000000 ) ) ;
#115 = LOCAL_TIME ( 19, 31, 13.00000000000000000, #130 ) ;
#116 = ORIENTED_EDGE ( 'NONE', *, *, #178, .T. ) ;
#117 = CARTESIAN_POINT ( 'NONE',  ( 0.000000000000000000, 0.000000000000000000, 0.000000000000000000 ) ) ;
#118 = DIRECTION ( 'NONE',  ( 1.000000000000000000, 0.000000000000000000, 0.000000000000000000 ) ) ;
#119 = ORIENTED_EDGE ( 'NONE', *, *, #203, .F. ) ;
#120 = DIRECTION ( 'NONE',  ( -0.000000000000000000, -0.000000000000000000, -1.000000000000000000 ) ) ;
#121 = FACE_OUTER_BOUND ( 'NONE', #77, .T. ) ;
#122 = FACE_OUTER_BOUND ( 'NONE', #156, .T. ) ;
#123 = DIRECTION ( 'NONE',  ( -0.000000000000000000, -0.000000000000000000, -1.000000000000000000 ) ) ;
#124 = APPROVAL ( #246, 'NEURÈENÝ' ) ;
#125 = PERSON_AND_ORGANIZATION ( #163, #57 ) ;
#126 = DIRECTION ( 'NONE',  ( -0.000000000000000000, -0.000000000000000000, -1.000000000000000000 ) ) ;
#127 = DIRECTION ( 'NONE',  ( 0.000000000000000000, 0.000000000000000000, 1.000000000000000000 ) ) ;
#128 = COORDINATED_UNIVERSAL_TIME_OFFSET ( 1, 0, .AHEAD. ) ;
#129 = APPROVAL ( #227, 'NEURÈENÝ' ) ;
#130 = COORDINATED_UNIVERSAL_TIME_OFFSET ( 1, 0, .AHEAD. ) ;
#131 = SECURITY_CLASSIFICATION ( '', '', #176 ) ;
#132 = ORIENTED_EDGE ( 'NONE', *, *, #205, .F. ) ;
#133 = CC_DESIGN_DATE_AND_TIME_ASSIGNMENT ( #171, #69, ( #131 ) ) ;
#134 = EDGE_LOOP ( 'NONE', ( #119, #95, #116, #54 ) ) ;
#135 = VERTEX_POINT ( 'NONE', #161 ) ;
#136 = AXIS2_PLACEMENT_3D ( 'NONE', #28, #20, #209 ) ;
#137 = DIRECTION ( 'NONE',  ( 1.000000000000000000, 0.000000000000000000, 0.000000000000000000 ) ) ;
#138 = CYLINDRICAL_SURFACE ( 'NONE', #111, 7.000000000000000000 ) ;
#139 = ORIENTED_EDGE ( 'NONE', *, *, #234, .T. ) ;
#140 = DIRECTION ( 'NONE',  ( -1.000000000000000000, 0.000000000000000000, 0.000000000000000000 ) ) ;
#141 = PRODUCT ( '8e80', '8e80', '', ( #46 ) ) ;
#142 = CARTESIAN_POINT ( 'NONE',  ( 0.000000000000000000, 0.000000000000000000, 505.0000000000000000 ) ) ;
#143 = APPLICATION_CONTEXT ( 'configuration controlled 3d designs of mechanical parts and assemblies' ) ;
#144 = CARTESIAN_POINT ( 'NONE',  ( 4.099999999999999645, 5.021051876504147385E-16, 505.0000000000000000 ) ) ;
#145 = DIRECTION ( 'NONE',  ( -1.000000000000000000, 0.000000000000000000, 0.000000000000000000 ) ) ;
#146 =( NAMED_UNIT ( * ) SI_UNIT ( $, .STERADIAN. ) SOLID_ANGLE_UNIT ( ) );
#147 = AXIS2_PLACEMENT_3D ( 'NONE', #97, #197, #137 ) ;
#148 = PERSON_AND_ORGANIZATION ( #163, #57 ) ;
#149 = LOCAL_TIME ( 19, 31, 13.00000000000000000, #90 ) ;
#150 = APPROVAL_ROLE ( '' ) ;
#151 = DIRECTION ( 'NONE',  ( 1.000000000000000000, 0.000000000000000000, 0.000000000000000000 ) ) ;
#152 = CIRCLE ( 'NONE', #169, 4.099999999999999645 ) ;
#153 = CYLINDRICAL_SURFACE ( 'NONE', #89, 7.000000000000000000 ) ;
#154 = UNCERTAINTY_MEASURE_WITH_UNIT (LENGTH_MEASURE( 1.000000000000000082E-05 ), #8, 'distance_accuracy_value', 'NONE');
#155 = CIRCLE ( 'NONE', #147, 7.000000000000000000 ) ;
#156 = EDGE_LOOP ( 'NONE', ( #220, #233 ) ) ;
#157 = EDGE_CURVE ( 'NONE', #40, #35, #36, .T. ) ;
#158 = EDGE_LOOP ( 'NONE', ( #181, #222 ) ) ;
#159 = ORIENTED_EDGE ( 'NONE', *, *, #167, .F. ) ;
#160 = LOCAL_TIME ( 19, 31, 13.00000000000000000, #128 ) ;
#161 = CARTESIAN_POINT ( 'NONE',  ( -4.099999999999999645, 0.000000000000000000, 505.0000000000000000 ) ) ;
#162 = ORIENTED_EDGE ( 'NONE', *, *, #243, .F. ) ;
#163 = PERSON ( 'NEURÈENÝ', 'NEURÈENÝ', 'NEURÈENÝ', ('NEURÈENÝ'), ('NEURÈENÝ'), ('NEURÈENÝ') ) ;
#164 = CIRCLE ( 'NONE', #216, 7.000000000000000000 ) ;
#165 = DIRECTION ( 'NONE',  ( 1.000000000000000000, 0.000000000000000000, 0.000000000000000000 ) ) ;
#166 = FACE_OUTER_BOUND ( 'NONE', #74, .T. ) ;
#167 = EDGE_CURVE ( 'NONE', #96, #199, #190, .T. ) ;
#168 = CARTESIAN_POINT ( 'NONE',  ( 0.000000000000000000, 0.000000000000000000, 5.000000000000000000 ) ) ;
#169 = AXIS2_PLACEMENT_3D ( 'NONE', #142, #187, #21 ) ;
#170 = DIRECTION ( 'NONE',  ( -0.000000000000000000, -0.000000000000000000, -1.000000000000000000 ) ) ;
#171 = DATE_AND_TIME ( #194, #160 ) ;
#172 = PERSON_AND_ORGANIZATION ( #163, #57 ) ;
#173 = ADVANCED_FACE ( 'NONE', ( #166 ), #240, .T. ) ;
#174 = CALENDAR_DATE ( 2022, 7, 7 ) ;
#175 = LOCAL_TIME ( 19, 31, 13.00000000000000000, #73 ) ;
#176 = SECURITY_CLASSIFICATION_LEVEL ( 'unclassified' ) ;
#177 = AXIS2_PLACEMENT_3D ( 'NONE', #200, #16, #182 ) ;
#178 = EDGE_CURVE ( 'NONE', #35, #40, #100, .T. ) ;
#179 = ORIENTED_EDGE ( 'NONE', *, *, #94, .T. ) ;
#180 = FACE_OUTER_BOUND ( 'NONE', #196, .T. ) ;
#181 = ORIENTED_EDGE ( 'NONE', *, *, #157, .F. ) ;
#182 = DIRECTION ( 'NONE',  ( 1.000000000000000000, 0.000000000000000000, 0.000000000000000000 ) ) ;
#183 = ADVANCED_FACE ( 'NONE', ( #122 ), #63, .T. ) ;
#184 = FACE_BOUND ( 'NONE', #158, .T. ) ;
#185 = ORIENTED_EDGE ( 'NONE', *, *, #205, .T. ) ;
#186 = ADVANCED_FACE ( 'NONE', ( #121 ), #45, .F. ) ;
#187 = DIRECTION ( 'NONE',  ( 0.000000000000000000, 0.000000000000000000, 1.000000000000000000 ) ) ;
#188 = AXIS2_PLACEMENT_3D ( 'NONE', #168, #65, #7 ) ;
#189 = DIRECTION ( 'NONE',  ( 0.000000000000000000, 0.000000000000000000, 1.000000000000000000 ) ) ;
#190 = LINE ( 'NONE', #26, #60 ) ;
#191 = DIRECTION ( 'NONE',  ( 0.000000000000000000, 0.000000000000000000, 1.000000000000000000 ) ) ;
#192 = PERSON_AND_ORGANIZATION ( #163, #57 ) ;
#193 = APPROVAL_ROLE ( '' ) ;
#194 = CALENDAR_DATE ( 2022, 7, 7 ) ;
#195 = PERSON_AND_ORGANIZATION ( #163, #57 ) ;
#196 = EDGE_LOOP ( 'NONE', ( #52, #232, #18, #92 ) ) ;
#197 = DIRECTION ( 'NONE',  ( 0.000000000000000000, 0.000000000000000000, 1.000000000000000000 ) ) ;
#198 = LOCAL_TIME ( 19, 31, 13.00000000000000000, #10 ) ;
#199 = VERTEX_POINT ( 'NONE', #41 ) ;
#200 = CARTESIAN_POINT ( 'NONE',  ( 0.000000000000000000, 0.000000000000000000, 5.000000000000000000 ) ) ;
#201 = CARTESIAN_POINT ( 'NONE',  ( -4.099999999999999645, 0.000000000000000000, 5.000000000000000000 ) ) ;
#202 = CARTESIAN_POINT ( 'NONE',  ( 0.000000000000000000, 0.000000000000000000, 5.000000000000000000 ) ) ;
#203 = EDGE_CURVE ( 'NONE', #238, #135, #67, .T. ) ;
#204 = CARTESIAN_POINT ( 'NONE',  ( 0.000000000000000000, 0.000000000000000000, 505.0000000000000000 ) ) ;
#205 = EDGE_CURVE ( 'NONE', #110, #96, #13, .T. ) ;
#206 = APPROVAL_PERSON_ORGANIZATION ( #125, #129, #193 ) ;
#207 = DIRECTION ( 'NONE',  ( 1.000000000000000000, 0.000000000000000000, 0.000000000000000000 ) ) ;
#208 = DATE_AND_TIME ( #30, #175 ) ;
#209 = DIRECTION ( 'NONE',  ( 1.000000000000000000, 0.000000000000000000, 0.000000000000000000 ) ) ;
#210 = CARTESIAN_POINT ( 'NONE',  ( 0.000000000000000000, 0.000000000000000000, 0.000000000000000000 ) ) ;
#211 = PRODUCT_DEFINITION ( 'NEZNÁMÝ', '', #83, #250 ) ;
#212 = AXIS2_PLACEMENT_3D ( 'NONE', #241, #189, #101 ) ;
#213 = CALENDAR_DATE ( 2022, 7, 7 ) ;
#214 = CC_DESIGN_PERSON_AND_ORGANIZATION_ASSIGNMENT ( #195, #12, ( #211 ) ) ;
#215 = APPLICATION_PROTOCOL_DEFINITION ( 'international standard', 'config_control_design', 1994, #143 ) ;
#216 = AXIS2_PLACEMENT_3D ( 'NONE', #68, #191, #207 ) ;
#217 = ORIENTED_EDGE ( 'NONE', *, *, #219, .T. ) ;
#218 = FACE_OUTER_BOUND ( 'NONE', #61, .T. ) ;
#219 = EDGE_CURVE ( 'NONE', #110, #53, #225, .T. ) ;
#220 = ORIENTED_EDGE ( 'NONE', *, *, #249, .T. ) ;
#221 = PLANE ( 'NONE',  #25 ) ;
#222 = ORIENTED_EDGE ( 'NONE', *, *, #178, .F. ) ;
#223 = AXIS2_PLACEMENT_3D ( 'NONE', #204, #42, #242 ) ;
#224 = CARTESIAN_POINT ( 'NONE',  ( -4.099999999999999645, 0.000000000000000000, 505.0000000000000000 ) ) ;
#225 = LINE ( 'NONE', #84, #19 ) ;
#226 = CLOSED_SHELL ( 'NONE', ( #62, #56, #48, #112, #186, #173, #183 ) ) ;
#227 = APPROVAL_STATUS ( 'not_yet_approved' ) ;
#228 = PERSON_AND_ORGANIZATION ( #163, #57 ) ;
#229 = APPROVAL_PERSON_ORGANIZATION ( #27, #124, #91 ) ;
#230 = CALENDAR_DATE ( 2022, 7, 7 ) ;
#231 = PERSON_AND_ORGANIZATION_ROLE ( 'creator' ) ;
#232 = ORIENTED_EDGE ( 'NONE', *, *, #234, .F. ) ;
#233 = ORIENTED_EDGE ( 'NONE', *, *, #203, .T. ) ;
#234 = EDGE_CURVE ( 'NONE', #96, #110, #164, .T. ) ;
#235 = CARTESIAN_POINT ( 'NONE',  ( 0.000000000000000000, 0.000000000000000000, 505.0000000000000000 ) ) ;
#236 = CARTESIAN_POINT ( 'NONE',  ( 4.099999999999999645, 5.021051876504147385E-16, 5.000000000000000000 ) ) ;
#237 = ORIENTED_EDGE ( 'NONE', *, *, #94, .F. ) ;
#238 = VERTEX_POINT ( 'NONE', #239 ) ;
#239 = CARTESIAN_POINT ( 'NONE',  ( 4.099999999999999645, 5.021051876504147385E-16, 505.0000000000000000 ) ) ;
#240 = CYLINDRICAL_SURFACE ( 'NONE', #245, 4.099999999999999645 ) ;
#241 = CARTESIAN_POINT ( 'NONE',  ( 0.000000000000000000, 0.000000000000000000, 0.000000000000000000 ) ) ;
#242 = DIRECTION ( 'NONE',  ( 1.000000000000000000, 0.000000000000000000, -0.000000000000000000 ) ) ;
#243 = EDGE_CURVE ( 'NONE', #238, #35, #44, .T. ) ;
#244 = APPLICATION_CONTEXT ( 'configuration controlled 3d designs of mechanical parts and assemblies' ) ;
#245 = AXIS2_PLACEMENT_3D ( 'NONE', #104, #126, #145 ) ;
#246 = APPROVAL_STATUS ( 'not_yet_approved' ) ;
#247 = DATE_AND_TIME ( #174, #149 ) ;
#248 = CC_DESIGN_SECURITY_CLASSIFICATION ( #131, ( #83 ) ) ;
#249 = EDGE_CURVE ( 'NONE', #135, #238, #152, .T. ) ;
#250 = DESIGN_CONTEXT ( 'detailed design', #244, 'design' ) ;
#251 = ORIENTED_EDGE ( 'NONE', *, *, #98, .F. ) ;
#252 = AXIS2_PLACEMENT_3D ( 'NONE', #117, #39, #118 ) ;
#253 = ORIENTED_EDGE ( 'NONE', *, *, #157, .T. ) ;
#254 = CYLINDRICAL_SURFACE ( 'NONE', #3, 4.099999999999999645 ) ;
#255 = EDGE_CURVE ( 'NONE', #135, #40, #85, .T. ) ;
ENDSEC;
END-ISO-10303-21;
