ISO-10303-21;
HEADER;
FILE_DESCRIPTION (( 'STEP AP203' ),
    '1' );
FILE_NAME ('8acc.STEP',
    '2023-02-13T09:49:56',
    ( '' ),
    ( '' ),
    'SwSTEP 2.0',
    'SolidWorks 2019',
    '' );
FILE_SCHEMA (( 'CONFIG_CONTROL_DESIGN' ));
ENDSEC;

DATA;
#1 = AXIS2_PLACEMENT_3D ( 'NONE', #6, #5, #88 ) ;
#2 = CARTESIAN_POINT ( 'NONE',  ( 0.000000000000000000, 0.000000000000000000, 7.000000000000000000 ) ) ;
#3 = DATE_AND_TIME ( #241, #188 ) ;
#4 = COORDINATED_UNIVERSAL_TIME_OFFSET ( 1, 0, .AHEAD. ) ;
#5 = DIRECTION ( 'NONE',  ( 0.000000000000000000, 0.000000000000000000, 1.000000000000000000 ) ) ;
#6 = CARTESIAN_POINT ( 'NONE',  ( 0.000000000000000000, 0.000000000000000000, 0.000000000000000000 ) ) ;
#7 = CC_DESIGN_APPROVAL ( #52, ( #166 ) ) ;
#8 = APPROVAL_DATE_TIME ( #104, #52 ) ;
#9 = DIRECTION ( 'NONE',  ( 0.000000000000000000, 0.000000000000000000, 1.000000000000000000 ) ) ;
#10 = LOCAL_TIME ( 10, 49, 56.00000000000000000, #181 ) ;
#11 = CC_DESIGN_PERSON_AND_ORGANIZATION_ASSIGNMENT ( #244, #89, ( #161 ) ) ;
#12 = CARTESIAN_POINT ( 'NONE',  ( 0.000000000000000000, 0.000000000000000000, 315.0000000000000000 ) ) ;
#13 = CARTESIAN_POINT ( 'NONE',  ( -11.00000000000000000, 0.000000000000000000, 0.000000000000000000 ) ) ;
#14 = VERTEX_POINT ( 'NONE', #49 ) ;
#15 = AXIS2_PLACEMENT_3D ( 'NONE', #193, #195, #38 ) ;
#16 = CARTESIAN_POINT ( 'NONE',  ( 0.000000000000000000, 0.000000000000000000, 7.000000000000000000 ) ) ;
#17 = CARTESIAN_POINT ( 'NONE',  ( 11.00000000000000000, 1.347111479062088405E-15, 7.000000000000000000 ) ) ;
#18 = CARTESIAN_POINT ( 'NONE',  ( 11.00000000000000000, 1.347111479062088405E-15, 7.000000000000000000 ) ) ;
#19 = APPLICATION_CONTEXT ( 'configuration controlled 3d designs of mechanical parts and assemblies' ) ;
#20 = CYLINDRICAL_SURFACE ( 'NONE', #149, 11.00000000000000000 ) ;
#21 = PLANE ( 'NONE',  #15 ) ;
#22 = DIRECTION ( 'NONE',  ( -0.000000000000000000, -0.000000000000000000, -1.000000000000000000 ) ) ;
#23 = APPROVAL_ROLE ( '' ) ;
#24 =( GEOMETRIC_REPRESENTATION_CONTEXT ( 3 ) GLOBAL_UNCERTAINTY_ASSIGNED_CONTEXT ( ( #85 ) ) GLOBAL_UNIT_ASSIGNED_CONTEXT ( ( #234, #212, #141 ) ) REPRESENTATION_CONTEXT ( 'NONE', 'WORKASPACE' ) );
#25 = APPLICATION_PROTOCOL_DEFINITION ( 'international standard', 'config_control_design', 1994, #220 ) ;
#26 = CALENDAR_DATE ( 2023, 13, 2 ) ;
#27 = CIRCLE ( 'NONE', #59, 7.500000000000000000 ) ;
#28 = COORDINATED_UNIVERSAL_TIME_OFFSET ( 1, 0, .AHEAD. ) ;
#29 = ORIENTED_EDGE ( 'NONE', *, *, #214, .F. ) ;
#30 = EDGE_CURVE ( 'NONE', #169, #33, #151, .T. ) ;
#31 = ORIENTED_EDGE ( 'NONE', *, *, #143, .T. ) ;
#32 = DIRECTION ( 'NONE',  ( 1.000000000000000000, 0.000000000000000000, 0.000000000000000000 ) ) ;
#33 = VERTEX_POINT ( 'NONE', #13 ) ;
#34 = PLANE ( 'NONE',  #64 ) ;
#35 = ADVANCED_FACE ( 'NONE', ( #98, #93 ), #34, .T. ) ;
#36 = CARTESIAN_POINT ( 'NONE',  ( 0.000000000000000000, 0.000000000000000000, 0.000000000000000000 ) ) ;
#37 = EDGE_CURVE ( 'NONE', #14, #226, #219, .T. ) ;
#38 = DIRECTION ( 'NONE',  ( 1.000000000000000000, 0.000000000000000000, -0.000000000000000000 ) ) ;
#39 = EDGE_CURVE ( 'NONE', #226, #14, #215, .T. ) ;
#40 = APPROVAL_STATUS ( 'not_yet_approved' ) ;
#41 = PRODUCT_RELATED_PRODUCT_CATEGORY ( 'detail', '', ( #87 ) ) ;
#42 = DIRECTION ( 'NONE',  ( -0.000000000000000000, -0.000000000000000000, -1.000000000000000000 ) ) ;
#43 = DIRECTION ( 'NONE',  ( 1.000000000000000000, 0.000000000000000000, 0.000000000000000000 ) ) ;
#44 = EDGE_CURVE ( 'NONE', #225, #107, #27, .T. ) ;
#45 = PERSON_AND_ORGANIZATION ( #111, #173 ) ;
#46 = CC_DESIGN_APPROVAL ( #90, ( #161 ) ) ;
#47 = APPROVAL_DATE_TIME ( #182, #122 ) ;
#48 = EDGE_LOOP ( 'NONE', ( #69, #150, #31, #138 ) ) ;
#49 = CARTESIAN_POINT ( 'NONE',  ( -7.500000000000000000, 0.000000000000000000, 7.000000000000000000 ) ) ;
#50 = CIRCLE ( 'NONE', #179, 7.500000000000000000 ) ;
#51 = CARTESIAN_POINT ( 'NONE',  ( 0.000000000000000000, 0.000000000000000000, 7.000000000000000000 ) ) ;
#52 = APPROVAL ( #40, 'NEURÈENÝ' ) ;
#53 = ORIENTED_EDGE ( 'NONE', *, *, #255, .T. ) ;
#54 = DIRECTION ( 'NONE',  ( 0.000000000000000000, 0.000000000000000000, 1.000000000000000000 ) ) ;
#55 = EDGE_CURVE ( 'NONE', #107, #14, #136, .T. ) ;
#56 = ORIENTED_EDGE ( 'NONE', *, *, #55, .F. ) ;
#57 = CC_DESIGN_PERSON_AND_ORGANIZATION_ASSIGNMENT ( #131, #199, ( #127 ) ) ;
#58 = FACE_OUTER_BOUND ( 'NONE', #157, .T. ) ;
#59 = AXIS2_PLACEMENT_3D ( 'NONE', #12, #9, #117 ) ;
#60 = DIRECTION ( 'NONE',  ( 0.000000000000000000, 0.000000000000000000, 1.000000000000000000 ) ) ;
#61 = COORDINATED_UNIVERSAL_TIME_OFFSET ( 1, 0, .AHEAD. ) ;
#62 = LINE ( 'NONE', #18, #210 ) ;
#63 = ADVANCED_FACE ( 'NONE', ( #171 ), #250, .T. ) ;
#64 = AXIS2_PLACEMENT_3D ( 'NONE', #51, #54, #115 ) ;
#65 = APPROVAL_DATE_TIME ( #3, #90 ) ;
#66 = APPROVAL_PERSON_ORGANIZATION ( #164, #52, #146 ) ;
#67 = APPROVAL_STATUS ( 'not_yet_approved' ) ;
#68 = CIRCLE ( 'NONE', #95, 11.00000000000000000 ) ;
#69 = ORIENTED_EDGE ( 'NONE', *, *, #255, .F. ) ;
#70 = ORIENTED_EDGE ( 'NONE', *, *, #183, .F. ) ;
#71 = ADVANCED_FACE ( 'NONE', ( #252 ), #20, .T. ) ;
#72 = CC_DESIGN_DATE_AND_TIME_ASSIGNMENT ( #165, #125, ( #127 ) ) ;
#73 = ORIENTED_EDGE ( 'NONE', *, *, #39, .T. ) ;
#74 = ORIENTED_EDGE ( 'NONE', *, *, #30, .T. ) ;
#75 = EDGE_LOOP ( 'NONE', ( #207, #29, #74, #232 ) ) ;
#76 = CARTESIAN_POINT ( 'NONE',  ( -7.500000000000000000, 0.000000000000000000, 315.0000000000000000 ) ) ;
#77 = CARTESIAN_POINT ( 'NONE',  ( 7.500000000000000000, 9.184850993605147944E-16, 315.0000000000000000 ) ) ;
#78 = VECTOR ( 'NONE', #249, 1000.000000000000000 ) ;
#79 = CARTESIAN_POINT ( 'NONE',  ( -7.500000000000000000, 0.000000000000000000, 315.0000000000000000 ) ) ;
#80 = CARTESIAN_POINT ( 'NONE',  ( 0.000000000000000000, 0.000000000000000000, 7.000000000000000000 ) ) ;
#81 = FACE_OUTER_BOUND ( 'NONE', #167, .T. ) ;
#82 = AXIS2_PLACEMENT_3D ( 'NONE', #217, #158, #238 ) ;
#83 = COORDINATED_UNIVERSAL_TIME_OFFSET ( 1, 0, .AHEAD. ) ;
#84 = DIRECTION ( 'NONE',  ( 1.000000000000000000, 0.000000000000000000, 0.000000000000000000 ) ) ;
#85 = UNCERTAINTY_MEASURE_WITH_UNIT (LENGTH_MEASURE( 1.000000000000000082E-05 ), #234, 'distance_accuracy_value', 'NONE');
#86 = AXIS2_PLACEMENT_3D ( 'NONE', #80, #42, #236 ) ;
#87 = PRODUCT ( '8acc', '8acc', '', ( #106 ) ) ;
#88 = DIRECTION ( 'NONE',  ( 1.000000000000000000, 0.000000000000000000, 0.000000000000000000 ) ) ;
#89 = PERSON_AND_ORGANIZATION_ROLE ( 'classification_officer' ) ;
#90 = APPROVAL ( #67, 'NEURÈENÝ' ) ;
#91 = CIRCLE ( 'NONE', #128, 11.00000000000000000 ) ;
#92 = CARTESIAN_POINT ( 'NONE',  ( 0.000000000000000000, 0.000000000000000000, 315.0000000000000000 ) ) ;
#93 = FACE_OUTER_BOUND ( 'NONE', #229, .T. ) ;
#94 = DIRECTION ( 'NONE',  ( 1.000000000000000000, 0.000000000000000000, 0.000000000000000000 ) ) ;
#95 = AXIS2_PLACEMENT_3D ( 'NONE', #2, #172, #251 ) ;
#96 = MANIFOLD_SOLID_BREP ( 'Pøidat vysunutím3', #108 ) ;
#97 = ORIENTED_EDGE ( 'NONE', *, *, #143, .F. ) ;
#98 = FACE_BOUND ( 'NONE', #120, .T. ) ;
#99 = DIRECTION ( 'NONE',  ( 0.000000000000000000, 0.000000000000000000, 1.000000000000000000 ) ) ;
#100 = DIRECTION ( 'NONE',  ( -0.000000000000000000, -0.000000000000000000, -1.000000000000000000 ) ) ;
#101 = AXIS2_PLACEMENT_3D ( 'NONE', #133, #185, #94 ) ;
#102 = CARTESIAN_POINT ( 'NONE',  ( 0.000000000000000000, 0.000000000000000000, 7.000000000000000000 ) ) ;
#103 = CARTESIAN_POINT ( 'NONE',  ( 0.000000000000000000, 0.000000000000000000, 315.0000000000000000 ) ) ;
#104 = DATE_AND_TIME ( #177, #10 ) ;
#105 = APPROVAL_STATUS ( 'not_yet_approved' ) ;
#106 = MECHANICAL_CONTEXT ( 'NONE', #220, 'mechanical' ) ;
#107 = VERTEX_POINT ( 'NONE', #79 ) ;
#108 = CLOSED_SHELL ( 'NONE', ( #63, #227, #71, #35, #140, #203, #154 ) ) ;
#109 = PERSON_AND_ORGANIZATION_ROLE ( 'design_supplier' ) ;
#110 = CC_DESIGN_PERSON_AND_ORGANIZATION_ASSIGNMENT ( #45, #109, ( #166 ) ) ;
#111 = PERSON ( 'NEURÈENÝ', 'NEURÈENÝ', 'NEURÈENÝ', ('NEURÈENÝ'), ('NEURÈENÝ'), ('NEURÈENÝ') ) ;
#112 = PERSON_AND_ORGANIZATION_ROLE ( 'design_owner' ) ;
#113 = CALENDAR_DATE ( 2023, 13, 2 ) ;
#114 = CC_DESIGN_APPROVAL ( #122, ( #127 ) ) ;
#115 = DIRECTION ( 'NONE',  ( 1.000000000000000000, 0.000000000000000000, -0.000000000000000000 ) ) ;
#116 = ORIENTED_EDGE ( 'NONE', *, *, #214, .T. ) ;
#117 = DIRECTION ( 'NONE',  ( 1.000000000000000000, 0.000000000000000000, 0.000000000000000000 ) ) ;
#118 = CC_DESIGN_SECURITY_CLASSIFICATION ( #161, ( #166 ) ) ;
#119 = ORIENTED_EDGE ( 'NONE', *, *, #37, .F. ) ;
#120 = EDGE_LOOP ( 'NONE', ( #119, #134 ) ) ;
#121 = DIRECTION ( 'NONE',  ( 0.000000000000000000, 0.000000000000000000, 1.000000000000000000 ) ) ;
#122 = APPROVAL ( #105, 'NEURÈENÝ' ) ;
#123 = CYLINDRICAL_SURFACE ( 'NONE', #223, 7.500000000000000000 ) ;
#124 = DIRECTION ( 'NONE',  ( -1.000000000000000000, 0.000000000000000000, 0.000000000000000000 ) ) ;
#125 = DATE_TIME_ROLE ( 'creation_date' ) ;
#126 = LINE ( 'NONE', #178, #228 ) ;
#127 = PRODUCT_DEFINITION ( 'NEZNÁMÝ', '', #166, #147 ) ;
#128 = AXIS2_PLACEMENT_3D ( 'NONE', #102, #99, #43 ) ;
#129 = PERSON_AND_ORGANIZATION ( #111, #173 ) ;
#130 = PERSON_AND_ORGANIZATION ( #111, #173 ) ;
#131 = PERSON_AND_ORGANIZATION ( #111, #173 ) ;
#132 = DIRECTION ( 'NONE',  ( 0.000000000000000000, 0.000000000000000000, 1.000000000000000000 ) ) ;
#133 = CARTESIAN_POINT ( 'NONE',  ( 0.000000000000000000, 0.000000000000000000, 7.000000000000000000 ) ) ;
#134 = ORIENTED_EDGE ( 'NONE', *, *, #39, .F. ) ;
#135 = CC_DESIGN_PERSON_AND_ORGANIZATION_ASSIGNMENT ( #201, #112, ( #87 ) ) ;
#136 = LINE ( 'NONE', #76, #170 ) ;
#137 = LOCAL_TIME ( 10, 49, 56.00000000000000000, #28 ) ;
#138 = ORIENTED_EDGE ( 'NONE', *, *, #30, .F. ) ;
#139 = DIRECTION ( 'NONE',  ( -1.000000000000000000, 0.000000000000000000, 0.000000000000000000 ) ) ;
#140 = ADVANCED_FACE ( 'NONE', ( #254 ), #21, .F. ) ;
#141 =( NAMED_UNIT ( * ) SI_UNIT ( $, .STERADIAN. ) SOLID_ANGLE_UNIT ( ) );
#142 = CARTESIAN_POINT ( 'NONE',  ( 0.000000000000000000, 0.000000000000000000, 315.0000000000000000 ) ) ;
#143 = EDGE_CURVE ( 'NONE', #156, #33, #233, .T. ) ;
#144 = DIRECTION ( 'NONE',  ( -0.000000000000000000, -0.000000000000000000, -1.000000000000000000 ) ) ;
#145 = AXIS2_PLACEMENT_3D ( 'NONE', #163, #60, #160 ) ;
#146 = APPROVAL_ROLE ( '' ) ;
#147 = DESIGN_CONTEXT ( 'detailed design', #19, 'design' ) ;
#148 = EDGE_CURVE ( 'NONE', #231, #156, #62, .T. ) ;
#149 = AXIS2_PLACEMENT_3D ( 'NONE', #253, #192, #213 ) ;
#150 = ORIENTED_EDGE ( 'NONE', *, *, #148, .T. ) ;
#151 = LINE ( 'NONE', #186, #78 ) ;
#152 = APPROVAL_PERSON_ORGANIZATION ( #130, #90, #23 ) ;
#153 = ORIENTED_EDGE ( 'NONE', *, *, #44, .F. ) ;
#154 = ADVANCED_FACE ( 'NONE', ( #81 ), #235, .T. ) ;
#155 = CC_DESIGN_PERSON_AND_ORGANIZATION_ASSIGNMENT ( #194, #222, ( #166 ) ) ;
#156 = VERTEX_POINT ( 'NONE', #159 ) ;
#157 = EDGE_LOOP ( 'NONE', ( #248, #168, #189, #224 ) ) ;
#158 = DIRECTION ( 'NONE',  ( 0.000000000000000000, 0.000000000000000000, 1.000000000000000000 ) ) ;
#159 = CARTESIAN_POINT ( 'NONE',  ( 11.00000000000000000, 1.347111479062088405E-15, 0.000000000000000000 ) ) ;
#160 = DIRECTION ( 'NONE',  ( 1.000000000000000000, 0.000000000000000000, -0.000000000000000000 ) ) ;
#161 = SECURITY_CLASSIFICATION ( '', '', #242 ) ;
#162 = CC_DESIGN_DATE_AND_TIME_ASSIGNMENT ( #196, #180, ( #161 ) ) ;
#163 = CARTESIAN_POINT ( 'NONE',  ( 0.000000000000000000, 0.000000000000000000, 315.0000000000000000 ) ) ;
#164 = PERSON_AND_ORGANIZATION ( #111, #173 ) ;
#165 = DATE_AND_TIME ( #26, #202 ) ;
#166 = PRODUCT_DEFINITION_FORMATION_WITH_SPECIFIED_SOURCE ( 'LIBOVOLNÝ', '', #87, .NOT_KNOWN. ) ;
#167 = EDGE_LOOP ( 'NONE', ( #208, #205 ) ) ;
#168 = ORIENTED_EDGE ( 'NONE', *, *, #187, .F. ) ;
#169 = VERTEX_POINT ( 'NONE', #174 ) ;
#170 = VECTOR ( 'NONE', #209, 1000.000000000000000 ) ;
#171 = FACE_OUTER_BOUND ( 'NONE', #211, .T. ) ;
#172 = DIRECTION ( 'NONE',  ( 0.000000000000000000, 0.000000000000000000, 1.000000000000000000 ) ) ;
#173 = ORGANIZATION ( 'NEURÈENÝ', 'NEURÈENÝ', '' ) ;
#174 = CARTESIAN_POINT ( 'NONE',  ( -11.00000000000000000, 0.000000000000000000, 7.000000000000000000 ) ) ;
#175 = CYLINDRICAL_SURFACE ( 'NONE', #86, 11.00000000000000000 ) ;
#176 = DIRECTION ( 'NONE',  ( 1.000000000000000000, 0.000000000000000000, 0.000000000000000000 ) ) ;
#177 = CALENDAR_DATE ( 2023, 13, 2 ) ;
#178 = CARTESIAN_POINT ( 'NONE',  ( 7.500000000000000000, 9.184850993605147944E-16, 315.0000000000000000 ) ) ;
#179 = AXIS2_PLACEMENT_3D ( 'NONE', #142, #239, #84 ) ;
#180 = DATE_TIME_ROLE ( 'classification_date' ) ;
#181 = COORDINATED_UNIVERSAL_TIME_OFFSET ( 1, 0, .AHEAD. ) ;
#182 = DATE_AND_TIME ( #113, #137 ) ;
#183 = EDGE_CURVE ( 'NONE', #33, #156, #243, .T. ) ;
#184 = LOCAL_TIME ( 10, 49, 56.00000000000000000, #83 ) ;
#185 = DIRECTION ( 'NONE',  ( 0.000000000000000000, 0.000000000000000000, 1.000000000000000000 ) ) ;
#186 = CARTESIAN_POINT ( 'NONE',  ( -11.00000000000000000, 0.000000000000000000, 7.000000000000000000 ) ) ;
#187 = EDGE_CURVE ( 'NONE', #107, #225, #50, .T. ) ;
#188 = LOCAL_TIME ( 10, 49, 56.00000000000000000, #4 ) ;
#189 = ORIENTED_EDGE ( 'NONE', *, *, #55, .T. ) ;
#190 = DIRECTION ( 'NONE',  ( -0.000000000000000000, -0.000000000000000000, -1.000000000000000000 ) ) ;
#191 = CARTESIAN_POINT ( 'NONE',  ( 7.500000000000000000, 9.184850993605147944E-16, 7.000000000000000000 ) ) ;
#192 = DIRECTION ( 'NONE',  ( -0.000000000000000000, -0.000000000000000000, -1.000000000000000000 ) ) ;
#193 = CARTESIAN_POINT ( 'NONE',  ( 0.000000000000000000, 0.000000000000000000, 0.000000000000000000 ) ) ;
#194 = PERSON_AND_ORGANIZATION ( #111, #173 ) ;
#195 = DIRECTION ( 'NONE',  ( 0.000000000000000000, 0.000000000000000000, 1.000000000000000000 ) ) ;
#196 = DATE_AND_TIME ( #198, #184 ) ;
#197 = AXIS2_PLACEMENT_3D ( 'NONE', #36, #121, #176 ) ;
#198 = CALENDAR_DATE ( 2023, 13, 2 ) ;
#199 = PERSON_AND_ORGANIZATION_ROLE ( 'creator' ) ;
#200 = SHAPE_DEFINITION_REPRESENTATION ( #240, #221 ) ;
#201 = PERSON_AND_ORGANIZATION ( #111, #173 ) ;
#202 = LOCAL_TIME ( 10, 49, 56.00000000000000000, #61 ) ;
#203 = ADVANCED_FACE ( 'NONE', ( #58 ), #123, .T. ) ;
#204 = APPROVAL_ROLE ( '' ) ;
#205 = ORIENTED_EDGE ( 'NONE', *, *, #44, .T. ) ;
#206 = AXIS2_PLACEMENT_3D ( 'NONE', #16, #132, #32 ) ;
#207 = ORIENTED_EDGE ( 'NONE', *, *, #148, .F. ) ;
#208 = ORIENTED_EDGE ( 'NONE', *, *, #187, .T. ) ;
#209 = DIRECTION ( 'NONE',  ( -0.000000000000000000, -0.000000000000000000, -1.000000000000000000 ) ) ;
#210 = VECTOR ( 'NONE', #144, 1000.000000000000000 ) ;
#211 = EDGE_LOOP ( 'NONE', ( #153, #247, #73, #56 ) ) ;
#212 =( NAMED_UNIT ( * ) PLANE_ANGLE_UNIT ( ) SI_UNIT ( $, .RADIAN. ) );
#213 = DIRECTION ( 'NONE',  ( -1.000000000000000000, 0.000000000000000000, 0.000000000000000000 ) ) ;
#214 = EDGE_CURVE ( 'NONE', #169, #231, #91, .T. ) ;
#215 = CIRCLE ( 'NONE', #206, 7.500000000000000000 ) ;
#216 = FACE_OUTER_BOUND ( 'NONE', #48, .T. ) ;
#217 = CARTESIAN_POINT ( 'NONE',  ( 0.000000000000000000, 0.000000000000000000, 0.000000000000000000 ) ) ;
#218 = APPLICATION_PROTOCOL_DEFINITION ( 'international standard', 'config_control_design', 1994, #19 ) ;
#219 = CIRCLE ( 'NONE', #101, 7.500000000000000000 ) ;
#220 = APPLICATION_CONTEXT ( 'configuration controlled 3d designs of mechanical parts and assemblies' ) ;
#221 = ADVANCED_BREP_SHAPE_REPRESENTATION ( '8acc', ( #96, #1 ), #24 ) ;
#222 = PERSON_AND_ORGANIZATION_ROLE ( 'creator' ) ;
#223 = AXIS2_PLACEMENT_3D ( 'NONE', #103, #190, #139 ) ;
#224 = ORIENTED_EDGE ( 'NONE', *, *, #37, .T. ) ;
#225 = VERTEX_POINT ( 'NONE', #77 ) ;
#226 = VERTEX_POINT ( 'NONE', #191 ) ;
#227 = ADVANCED_FACE ( 'NONE', ( #216 ), #175, .T. ) ;
#228 = VECTOR ( 'NONE', #22, 1000.000000000000000 ) ;
#229 = EDGE_LOOP ( 'NONE', ( #116, #53 ) ) ;
#230 = EDGE_CURVE ( 'NONE', #225, #226, #126, .T. ) ;
#231 = VERTEX_POINT ( 'NONE', #17 ) ;
#232 = ORIENTED_EDGE ( 'NONE', *, *, #183, .T. ) ;
#233 = CIRCLE ( 'NONE', #197, 11.00000000000000000 ) ;
#234 =( LENGTH_UNIT ( ) NAMED_UNIT ( * ) SI_UNIT ( .MILLI., .METRE. ) );
#235 = PLANE ( 'NONE',  #145 ) ;
#236 = DIRECTION ( 'NONE',  ( -1.000000000000000000, 0.000000000000000000, 0.000000000000000000 ) ) ;
#237 = AXIS2_PLACEMENT_3D ( 'NONE', #92, #100, #124 ) ;
#238 = DIRECTION ( 'NONE',  ( 1.000000000000000000, 0.000000000000000000, 0.000000000000000000 ) ) ;
#239 = DIRECTION ( 'NONE',  ( 0.000000000000000000, 0.000000000000000000, 1.000000000000000000 ) ) ;
#240 = PRODUCT_DEFINITION_SHAPE ( 'NONE', 'NONE',  #127 ) ;
#241 = CALENDAR_DATE ( 2023, 13, 2 ) ;
#242 = SECURITY_CLASSIFICATION_LEVEL ( 'unclassified' ) ;
#243 = CIRCLE ( 'NONE', #82, 11.00000000000000000 ) ;
#244 = PERSON_AND_ORGANIZATION ( #111, #173 ) ;
#245 = APPROVAL_PERSON_ORGANIZATION ( #129, #122, #204 ) ;
#246 = EDGE_LOOP ( 'NONE', ( #70, #97 ) ) ;
#247 = ORIENTED_EDGE ( 'NONE', *, *, #230, .T. ) ;
#248 = ORIENTED_EDGE ( 'NONE', *, *, #230, .F. ) ;
#249 = DIRECTION ( 'NONE',  ( -0.000000000000000000, -0.000000000000000000, -1.000000000000000000 ) ) ;
#250 = CYLINDRICAL_SURFACE ( 'NONE', #237, 7.500000000000000000 ) ;
#251 = DIRECTION ( 'NONE',  ( 1.000000000000000000, 0.000000000000000000, 0.000000000000000000 ) ) ;
#252 = FACE_OUTER_BOUND ( 'NONE', #75, .T. ) ;
#253 = CARTESIAN_POINT ( 'NONE',  ( 0.000000000000000000, 0.000000000000000000, 7.000000000000000000 ) ) ;
#254 = FACE_OUTER_BOUND ( 'NONE', #246, .T. ) ;
#255 = EDGE_CURVE ( 'NONE', #231, #169, #68, .T. ) ;
ENDSEC;
END-ISO-10303-21;
