ISO-10303-21;
HEADER;
FILE_DESCRIPTION (( 'STEP AP203' ),
    '1' );
FILE_NAME ('5851.STEP',
    '2022-07-07T17:05:07',
    ( '' ),
    ( '' ),
    'SwSTEP 2.0',
    'SolidWorks 2019',
    '' );
FILE_SCHEMA (( 'CONFIG_CONTROL_DESIGN' ));
ENDSEC;

DATA;
#1 = FACE_OUTER_BOUND ( 'NONE', #26, .T. ) ;
#2 = AXIS2_PLACEMENT_3D ( 'NONE', #98, #3, #46 ) ;
#3 = DIRECTION ( 'NONE',  ( 0.000000000000000000, 0.000000000000000000, 1.000000000000000000 ) ) ;
#4 = PERSON_AND_ORGANIZATION ( #93, #204 ) ;
#5 = DIRECTION ( 'NONE',  ( 0.000000000000000000, 0.000000000000000000, 1.000000000000000000 ) ) ;
#6 = DIRECTION ( 'NONE',  ( -0.000000000000000000, -0.000000000000000000, -1.000000000000000000 ) ) ;
#7 = APPLICATION_CONTEXT ( 'configuration controlled 3d designs of mechanical parts and assemblies' ) ;
#8 = DIRECTION ( 'NONE',  ( -0.000000000000000000, -0.000000000000000000, -1.000000000000000000 ) ) ;
#9 = ADVANCED_FACE ( 'NONE', ( #165 ), #184, .T. ) ;
#10 = ORIENTED_EDGE ( 'NONE', *, *, #118, .F. ) ;
#11 = EDGE_CURVE ( 'NONE', #248, #109, #107, .T. ) ;
#12 = CARTESIAN_POINT ( 'NONE',  ( 12.00000000000000178, 1.469576158976824144E-15, 7.000000000000000000 ) ) ;
#13 = ORIENTED_EDGE ( 'NONE', *, *, #164, .T. ) ;
#14 = APPLICATION_PROTOCOL_DEFINITION ( 'international standard', 'config_control_design', 1994, #7 ) ;
#15 = CALENDAR_DATE ( 2022, 7, 7 ) ;
#16 = PLANE ( 'NONE',  #61 ) ;
#17 = PERSON_AND_ORGANIZATION ( #93, #204 ) ;
#18 = AXIS2_PLACEMENT_3D ( 'NONE', #158, #162, #40 ) ;
#19 = LINE ( 'NONE', #244, #199 ) ;
#20 = CARTESIAN_POINT ( 'NONE',  ( 0.000000000000000000, 0.000000000000000000, 257.0000000000000000 ) ) ;
#21 = CC_DESIGN_PERSON_AND_ORGANIZATION_ASSIGNMENT ( #17, #101, ( #126 ) ) ;
#22 = CARTESIAN_POINT ( 'NONE',  ( 0.000000000000000000, 0.000000000000000000, 7.000000000000000000 ) ) ;
#23 = ADVANCED_FACE ( 'NONE', ( #106, #166 ), #144, .T. ) ;
#24 = PERSON_AND_ORGANIZATION_ROLE ( 'classification_officer' ) ;
#25 = MANIFOLD_SOLID_BREP ( 'Pøidat vysunutím3', #189 ) ;
#26 = EDGE_LOOP ( 'NONE', ( #249, #224, #203, #131 ) ) ;
#27 = ADVANCED_FACE ( 'NONE', ( #200 ), #216, .F. ) ;
#28 = EDGE_LOOP ( 'NONE', ( #86, #225 ) ) ;
#29 = ADVANCED_FACE ( 'NONE', ( #183 ), #141, .T. ) ;
#30 = EDGE_LOOP ( 'NONE', ( #147, #227, #13, #186 ) ) ;
#31 = ORIENTED_EDGE ( 'NONE', *, *, #185, .F. ) ;
#32 = AXIS2_PLACEMENT_3D ( 'NONE', #80, #180, #122 ) ;
#33 = APPLICATION_CONTEXT ( 'configuration controlled 3d designs of mechanical parts and assemblies' ) ;
#34 = LINE ( 'NONE', #113, #181 ) ;
#35 = LOCAL_TIME ( 19, 5, 7.000000000000000000, #41 ) ;
#36 = DIRECTION ( 'NONE',  ( 0.000000000000000000, 0.000000000000000000, 1.000000000000000000 ) ) ;
#37 = APPROVAL_PERSON_ORGANIZATION ( #161, #228, #220 ) ;
#38 = APPROVAL_DATE_TIME ( #143, #228 ) ;
#39 = PRODUCT ( '5851', '5851', '', ( #209 ) ) ;
#40 = DIRECTION ( 'NONE',  ( 1.000000000000000000, 0.000000000000000000, -0.000000000000000000 ) ) ;
#41 = COORDINATED_UNIVERSAL_TIME_OFFSET ( 1, 0, .AHEAD. ) ;
#42 = APPROVAL ( #99, 'NEURÈENÝ' ) ;
#43 = CARTESIAN_POINT ( 'NONE',  ( -12.00000000000000178, 0.000000000000000000, 7.000000000000000000 ) ) ;
#44 = LOCAL_TIME ( 19, 5, 7.000000000000000000, #111 ) ;
#45 = APPROVAL_ROLE ( '' ) ;
#46 = DIRECTION ( 'NONE',  ( 1.000000000000000000, 0.000000000000000000, 0.000000000000000000 ) ) ;
#47 = COORDINATED_UNIVERSAL_TIME_OFFSET ( 1, 0, .AHEAD. ) ;
#48 = DIRECTION ( 'NONE',  ( -1.000000000000000000, 0.000000000000000000, 0.000000000000000000 ) ) ;
#49 = CARTESIAN_POINT ( 'NONE',  ( 0.000000000000000000, 0.000000000000000000, 7.000000000000000000 ) ) ;
#50 = VERTEX_POINT ( 'NONE', #124 ) ;
#51 = ADVANCED_BREP_SHAPE_REPRESENTATION ( '5851', ( #25, #160 ), #155 ) ;
#52 = ORIENTED_EDGE ( 'NONE', *, *, #57, .F. ) ;
#53 = CIRCLE ( 'NONE', #235, 12.00000000000000178 ) ;
#54 = DIRECTION ( 'NONE',  ( 0.000000000000000000, 0.000000000000000000, 1.000000000000000000 ) ) ;
#55 = VERTEX_POINT ( 'NONE', #202 ) ;
#56 = AXIS2_PLACEMENT_3D ( 'NONE', #66, #102, #171 ) ;
#57 = EDGE_CURVE ( 'NONE', #125, #50, #82, .T. ) ;
#58 = ADVANCED_FACE ( 'NONE', ( #119 ), #84, .T. ) ;
#59 = PERSON_AND_ORGANIZATION ( #93, #204 ) ;
#60 = CIRCLE ( 'NONE', #123, 9.000000000000001776 ) ;
#61 = AXIS2_PLACEMENT_3D ( 'NONE', #153, #54, #130 ) ;
#62 = DIRECTION ( 'NONE',  ( 0.000000000000000000, 0.000000000000000000, 1.000000000000000000 ) ) ;
#63 = APPROVAL ( #190, 'NEURÈENÝ' ) ;
#64 = DIRECTION ( 'NONE',  ( 0.000000000000000000, 0.000000000000000000, 1.000000000000000000 ) ) ;
#65 = SECURITY_CLASSIFICATION_LEVEL ( 'unclassified' ) ;
#66 = CARTESIAN_POINT ( 'NONE',  ( 0.000000000000000000, 0.000000000000000000, 257.0000000000000000 ) ) ;
#67 = UNCERTAINTY_MEASURE_WITH_UNIT (LENGTH_MEASURE( 1.000000000000000082E-05 ), #231, 'distance_accuracy_value', 'NONE');
#68 = DIRECTION ( 'NONE',  ( 1.000000000000000000, 0.000000000000000000, 0.000000000000000000 ) ) ;
#69 = ORIENTED_EDGE ( 'NONE', *, *, #232, .T. ) ;
#70 = ORIENTED_EDGE ( 'NONE', *, *, #116, .F. ) ;
#71 = VERTEX_POINT ( 'NONE', #163 ) ;
#72 = DIRECTION ( 'NONE',  ( 1.000000000000000000, 0.000000000000000000, 0.000000000000000000 ) ) ;
#73 = DIRECTION ( 'NONE',  ( -0.000000000000000000, -0.000000000000000000, -1.000000000000000000 ) ) ;
#74 = EDGE_CURVE ( 'NONE', #187, #71, #19, .T. ) ;
#75 = CC_DESIGN_PERSON_AND_ORGANIZATION_ASSIGNMENT ( #195, #182, ( #126 ) ) ;
#76 = SHAPE_DEFINITION_REPRESENTATION ( #137, #51 ) ;
#77 = CARTESIAN_POINT ( 'NONE',  ( 12.00000000000000178, 1.469576158976824144E-15, 0.000000000000000000 ) ) ;
#78 = CARTESIAN_POINT ( 'NONE',  ( 0.000000000000000000, 0.000000000000000000, 7.000000000000000000 ) ) ;
#79 = CIRCLE ( 'NONE', #2, 12.00000000000000178 ) ;
#80 = CARTESIAN_POINT ( 'NONE',  ( 0.000000000000000000, 0.000000000000000000, 0.000000000000000000 ) ) ;
#81 = CALENDAR_DATE ( 2022, 7, 7 ) ;
#82 = LINE ( 'NONE', #100, #157 ) ;
#83 = CC_DESIGN_APPROVAL ( #228, ( #126 ) ) ;
#84 = CYLINDRICAL_SURFACE ( 'NONE', #192, 9.000000000000001776 ) ;
#85 = DIRECTION ( 'NONE',  ( -1.000000000000000000, 0.000000000000000000, 0.000000000000000000 ) ) ;
#86 = ORIENTED_EDGE ( 'NONE', *, *, #218, .T. ) ;
#87 = SECURITY_CLASSIFICATION ( '', '', #65 ) ;
#88 = CC_DESIGN_DATE_AND_TIME_ASSIGNMENT ( #97, #95, ( #87 ) ) ;
#89 = DIRECTION ( 'NONE',  ( -0.000000000000000000, -0.000000000000000000, -1.000000000000000000 ) ) ;
#90 = ORIENTED_EDGE ( 'NONE', *, *, #11, .T. ) ;
#91 = PERSON_AND_ORGANIZATION_ROLE ( 'design_owner' ) ;
#92 = APPROVAL_PERSON_ORGANIZATION ( #168, #63, #251 ) ;
#93 = PERSON ( 'NEURÈENÝ', 'NEURÈENÝ', 'NEURÈENÝ', ('NEURÈENÝ'), ('NEURÈENÝ'), ('NEURÈENÝ') ) ;
#94 = AXIS2_PLACEMENT_3D ( 'NONE', #49, #8, #85 ) ;
#95 = DATE_TIME_ROLE ( 'classification_date' ) ;
#96 = EDGE_CURVE ( 'NONE', #248, #129, #53, .T. ) ;
#97 = DATE_AND_TIME ( #138, #35 ) ;
#98 = CARTESIAN_POINT ( 'NONE',  ( 0.000000000000000000, 0.000000000000000000, 0.000000000000000000 ) ) ;
#99 = APPROVAL_STATUS ( 'not_yet_approved' ) ;
#100 = CARTESIAN_POINT ( 'NONE',  ( 9.000000000000001776, 1.102182119232617911E-15, 257.0000000000000000 ) ) ;
#101 = PERSON_AND_ORGANIZATION_ROLE ( 'design_supplier' ) ;
#102 = DIRECTION ( 'NONE',  ( 0.000000000000000000, 0.000000000000000000, 1.000000000000000000 ) ) ;
#103 = CARTESIAN_POINT ( 'NONE',  ( 0.000000000000000000, 0.000000000000000000, 7.000000000000000000 ) ) ;
#104 = CIRCLE ( 'NONE', #169, 9.000000000000001776 ) ;
#105 = ORIENTED_EDGE ( 'NONE', *, *, #96, .F. ) ;
#106 = FACE_BOUND ( 'NONE', #150, .T. ) ;
#107 = LINE ( 'NONE', #12, #175 ) ;
#108 = AXIS2_PLACEMENT_3D ( 'NONE', #172, #36, #134 ) ;
#109 = VERTEX_POINT ( 'NONE', #77 ) ;
#110 = CARTESIAN_POINT ( 'NONE',  ( 0.000000000000000000, 0.000000000000000000, 0.000000000000000000 ) ) ;
#111 = COORDINATED_UNIVERSAL_TIME_OFFSET ( 1, 0, .AHEAD. ) ;
#112 = CIRCLE ( 'NONE', #108, 12.00000000000000178 ) ;
#113 = CARTESIAN_POINT ( 'NONE',  ( -12.00000000000000178, 0.000000000000000000, 7.000000000000000000 ) ) ;
#114 = AXIS2_PLACEMENT_3D ( 'NONE', #156, #236, #197 ) ;
#115 = ADVANCED_FACE ( 'NONE', ( #1 ), #139, .T. ) ;
#116 = EDGE_CURVE ( 'NONE', #109, #55, #79, .T. ) ;
#117 = PERSON_AND_ORGANIZATION_ROLE ( 'creator' ) ;
#118 = EDGE_CURVE ( 'NONE', #71, #50, #60, .T. ) ;
#119 = FACE_OUTER_BOUND ( 'NONE', #230, .T. ) ;
#120 = CIRCLE ( 'NONE', #56, 9.000000000000001776 ) ;
#121 = CALENDAR_DATE ( 2022, 7, 7 ) ;
#122 = DIRECTION ( 'NONE',  ( 1.000000000000000000, 0.000000000000000000, 0.000000000000000000 ) ) ;
#123 = AXIS2_PLACEMENT_3D ( 'NONE', #78, #64, #241 ) ;
#124 = CARTESIAN_POINT ( 'NONE',  ( 9.000000000000001776, 1.102182119232617911E-15, 7.000000000000000000 ) ) ;
#125 = VERTEX_POINT ( 'NONE', #219 ) ;
#126 = PRODUCT_DEFINITION_FORMATION_WITH_SPECIFIED_SOURCE ( 'LIBOVOLNÝ', '', #39, .NOT_KNOWN. ) ;
#127 = EDGE_LOOP ( 'NONE', ( #128, #69 ) ) ;
#128 = ORIENTED_EDGE ( 'NONE', *, *, #185, .T. ) ;
#129 = VERTEX_POINT ( 'NONE', #43 ) ;
#130 = DIRECTION ( 'NONE',  ( 1.000000000000000000, 0.000000000000000000, -0.000000000000000000 ) ) ;
#131 = ORIENTED_EDGE ( 'NONE', *, *, #133, .T. ) ;
#132 = DESIGN_CONTEXT ( 'detailed design', #33, 'design' ) ;
#133 = EDGE_CURVE ( 'NONE', #55, #109, #213, .T. ) ;
#134 = DIRECTION ( 'NONE',  ( 1.000000000000000000, 0.000000000000000000, 0.000000000000000000 ) ) ;
#135 = CC_DESIGN_PERSON_AND_ORGANIZATION_ASSIGNMENT ( #145, #24, ( #87 ) ) ;
#136 = APPLICATION_PROTOCOL_DEFINITION ( 'international standard', 'config_control_design', 1994, #33 ) ;
#137 = PRODUCT_DEFINITION_SHAPE ( 'NONE', 'NONE',  #239 ) ;
#138 = CALENDAR_DATE ( 2022, 7, 7 ) ;
#139 = CYLINDRICAL_SURFACE ( 'NONE', #114, 12.00000000000000178 ) ;
#140 = PERSON_AND_ORGANIZATION ( #93, #204 ) ;
#141 = CYLINDRICAL_SURFACE ( 'NONE', #237, 9.000000000000001776 ) ;
#142 = LOCAL_TIME ( 19, 5, 7.000000000000000000, #193 ) ;
#143 = DATE_AND_TIME ( #217, #142 ) ;
#144 = PLANE ( 'NONE',  #243 ) ;
#145 = PERSON_AND_ORGANIZATION ( #93, #204 ) ;
#146 = CARTESIAN_POINT ( 'NONE',  ( 0.000000000000000000, 0.000000000000000000, 257.0000000000000000 ) ) ;
#147 = ORIENTED_EDGE ( 'NONE', *, *, #232, .F. ) ;
#148 = EDGE_LOOP ( 'NONE', ( #250, #70 ) ) ;
#149 = LOCAL_TIME ( 19, 5, 7.000000000000000000, #255 ) ;
#150 = EDGE_LOOP ( 'NONE', ( #10, #151 ) ) ;
#151 = ORIENTED_EDGE ( 'NONE', *, *, #164, .F. ) ;
#152 = CARTESIAN_POINT ( 'NONE',  ( -9.000000000000001776, 0.000000000000000000, 257.0000000000000000 ) ) ;
#153 = CARTESIAN_POINT ( 'NONE',  ( 0.000000000000000000, 0.000000000000000000, 257.0000000000000000 ) ) ;
#154 =( NAMED_UNIT ( * ) SI_UNIT ( $, .STERADIAN. ) SOLID_ANGLE_UNIT ( ) );
#155 =( GEOMETRIC_REPRESENTATION_CONTEXT ( 3 ) GLOBAL_UNCERTAINTY_ASSIGNED_CONTEXT ( ( #67 ) ) GLOBAL_UNIT_ASSIGNED_CONTEXT ( ( #231, #253, #154 ) ) REPRESENTATION_CONTEXT ( 'NONE', 'WORKASPACE' ) );
#156 = CARTESIAN_POINT ( 'NONE',  ( 0.000000000000000000, 0.000000000000000000, 7.000000000000000000 ) ) ;
#157 = VECTOR ( 'NONE', #6, 1000.000000000000000 ) ;
#158 = CARTESIAN_POINT ( 'NONE',  ( 0.000000000000000000, 0.000000000000000000, 0.000000000000000000 ) ) ;
#159 = DIRECTION ( 'NONE',  ( 1.000000000000000000, 0.000000000000000000, 0.000000000000000000 ) ) ;
#160 = AXIS2_PLACEMENT_3D ( 'NONE', #110, #188, #72 ) ;
#161 = PERSON_AND_ORGANIZATION ( #93, #204 ) ;
#162 = DIRECTION ( 'NONE',  ( 0.000000000000000000, 0.000000000000000000, 1.000000000000000000 ) ) ;
#163 = CARTESIAN_POINT ( 'NONE',  ( -9.000000000000001776, 0.000000000000000000, 7.000000000000000000 ) ) ;
#164 = EDGE_CURVE ( 'NONE', #50, #71, #176, .T. ) ;
#165 = FACE_OUTER_BOUND ( 'NONE', #229, .T. ) ;
#166 = FACE_OUTER_BOUND ( 'NONE', #28, .T. ) ;
#167 = ORIENTED_EDGE ( 'NONE', *, *, #118, .T. ) ;
#168 = PERSON_AND_ORGANIZATION ( #93, #204 ) ;
#169 = AXIS2_PLACEMENT_3D ( 'NONE', #191, #211, #254 ) ;
#170 = CC_DESIGN_DATE_AND_TIME_ASSIGNMENT ( #177, #240, ( #239 ) ) ;
#171 = DIRECTION ( 'NONE',  ( 1.000000000000000000, 0.000000000000000000, 0.000000000000000000 ) ) ;
#172 = CARTESIAN_POINT ( 'NONE',  ( 0.000000000000000000, 0.000000000000000000, 7.000000000000000000 ) ) ;
#173 = DATE_AND_TIME ( #121, #149 ) ;
#174 = LOCAL_TIME ( 19, 5, 7.000000000000000000, #47 ) ;
#175 = VECTOR ( 'NONE', #89, 1000.000000000000000 ) ;
#176 = CIRCLE ( 'NONE', #252, 9.000000000000001776 ) ;
#177 = DATE_AND_TIME ( #81, #174 ) ;
#178 = CARTESIAN_POINT ( 'NONE',  ( 0.000000000000000000, 0.000000000000000000, 7.000000000000000000 ) ) ;
#179 = DIRECTION ( 'NONE',  ( -0.000000000000000000, -0.000000000000000000, -1.000000000000000000 ) ) ;
#180 = DIRECTION ( 'NONE',  ( 0.000000000000000000, 0.000000000000000000, 1.000000000000000000 ) ) ;
#181 = VECTOR ( 'NONE', #73, 1000.000000000000000 ) ;
#182 = PERSON_AND_ORGANIZATION_ROLE ( 'creator' ) ;
#183 = FACE_OUTER_BOUND ( 'NONE', #30, .T. ) ;
#184 = CYLINDRICAL_SURFACE ( 'NONE', #94, 12.00000000000000178 ) ;
#185 = EDGE_CURVE ( 'NONE', #187, #125, #120, .T. ) ;
#186 = ORIENTED_EDGE ( 'NONE', *, *, #74, .F. ) ;
#187 = VERTEX_POINT ( 'NONE', #152 ) ;
#188 = DIRECTION ( 'NONE',  ( 0.000000000000000000, 0.000000000000000000, 1.000000000000000000 ) ) ;
#189 = CLOSED_SHELL ( 'NONE', ( #29, #9, #115, #23, #27, #58, #247 ) ) ;
#190 = APPROVAL_STATUS ( 'not_yet_approved' ) ;
#191 = CARTESIAN_POINT ( 'NONE',  ( 0.000000000000000000, 0.000000000000000000, 257.0000000000000000 ) ) ;
#192 = AXIS2_PLACEMENT_3D ( 'NONE', #20, #221, #238 ) ;
#193 = COORDINATED_UNIVERSAL_TIME_OFFSET ( 1, 0, .AHEAD. ) ;
#194 = CC_DESIGN_APPROVAL ( #63, ( #239 ) ) ;
#195 = PERSON_AND_ORGANIZATION ( #93, #204 ) ;
#196 = CC_DESIGN_PERSON_AND_ORGANIZATION_ASSIGNMENT ( #59, #91, ( #39 ) ) ;
#197 = DIRECTION ( 'NONE',  ( -1.000000000000000000, 0.000000000000000000, 0.000000000000000000 ) ) ;
#198 = DIRECTION ( 'NONE',  ( 0.000000000000000000, 0.000000000000000000, 1.000000000000000000 ) ) ;
#199 = VECTOR ( 'NONE', #179, 1000.000000000000000 ) ;
#200 = FACE_OUTER_BOUND ( 'NONE', #148, .T. ) ;
#201 = APPROVAL_DATE_TIME ( #210, #63 ) ;
#202 = CARTESIAN_POINT ( 'NONE',  ( -12.00000000000000178, 0.000000000000000000, 0.000000000000000000 ) ) ;
#203 = ORIENTED_EDGE ( 'NONE', *, *, #245, .T. ) ;
#204 = ORGANIZATION ( 'NEURÈENÝ', 'NEURÈENÝ', '' ) ;
#205 = ORIENTED_EDGE ( 'NONE', *, *, #245, .F. ) ;
#206 = ORIENTED_EDGE ( 'NONE', *, *, #74, .T. ) ;
#207 = CC_DESIGN_SECURITY_CLASSIFICATION ( #87, ( #126 ) ) ;
#208 = CARTESIAN_POINT ( 'NONE',  ( 12.00000000000000178, 1.469576158976824144E-15, 7.000000000000000000 ) ) ;
#209 = MECHANICAL_CONTEXT ( 'NONE', #7, 'mechanical' ) ;
#210 = DATE_AND_TIME ( #15, #44 ) ;
#211 = DIRECTION ( 'NONE',  ( 0.000000000000000000, 0.000000000000000000, 1.000000000000000000 ) ) ;
#212 = FACE_OUTER_BOUND ( 'NONE', #127, .T. ) ;
#213 = CIRCLE ( 'NONE', #32, 12.00000000000000178 ) ;
#214 = CC_DESIGN_PERSON_AND_ORGANIZATION_ASSIGNMENT ( #140, #117, ( #239 ) ) ;
#215 = APPROVAL_DATE_TIME ( #173, #42 ) ;
#216 = PLANE ( 'NONE',  #18 ) ;
#217 = CALENDAR_DATE ( 2022, 7, 7 ) ;
#218 = EDGE_CURVE ( 'NONE', #129, #248, #112, .T. ) ;
#219 = CARTESIAN_POINT ( 'NONE',  ( 9.000000000000001776, 1.102182119232617911E-15, 257.0000000000000000 ) ) ;
#220 = APPROVAL_ROLE ( '' ) ;
#221 = DIRECTION ( 'NONE',  ( -0.000000000000000000, -0.000000000000000000, -1.000000000000000000 ) ) ;
#222 = APPROVAL_STATUS ( 'not_yet_approved' ) ;
#223 = DIRECTION ( 'NONE',  ( -0.000000000000000000, -0.000000000000000000, -1.000000000000000000 ) ) ;
#224 = ORIENTED_EDGE ( 'NONE', *, *, #218, .F. ) ;
#225 = ORIENTED_EDGE ( 'NONE', *, *, #96, .T. ) ;
#226 = CC_DESIGN_APPROVAL ( #42, ( #87 ) ) ;
#227 = ORIENTED_EDGE ( 'NONE', *, *, #57, .T. ) ;
#228 = APPROVAL ( #222, 'NEURÈENÝ' ) ;
#229 = EDGE_LOOP ( 'NONE', ( #105, #90, #246, #205 ) ) ;
#230 = EDGE_LOOP ( 'NONE', ( #52, #31, #206, #167 ) ) ;
#231 =( LENGTH_UNIT ( ) NAMED_UNIT ( * ) SI_UNIT ( .MILLI., .METRE. ) );
#232 = EDGE_CURVE ( 'NONE', #125, #187, #104, .T. ) ;
#233 = APPROVAL_PERSON_ORGANIZATION ( #4, #42, #45 ) ;
#234 = PRODUCT_RELATED_PRODUCT_CATEGORY ( 'detail', '', ( #39 ) ) ;
#235 = AXIS2_PLACEMENT_3D ( 'NONE', #178, #62, #68 ) ;
#236 = DIRECTION ( 'NONE',  ( -0.000000000000000000, -0.000000000000000000, -1.000000000000000000 ) ) ;
#237 = AXIS2_PLACEMENT_3D ( 'NONE', #146, #223, #48 ) ;
#238 = DIRECTION ( 'NONE',  ( -1.000000000000000000, 0.000000000000000000, 0.000000000000000000 ) ) ;
#239 = PRODUCT_DEFINITION ( 'NEZNÁMÝ', '', #126, #132 ) ;
#240 = DATE_TIME_ROLE ( 'creation_date' ) ;
#241 = DIRECTION ( 'NONE',  ( 1.000000000000000000, 0.000000000000000000, 0.000000000000000000 ) ) ;
#242 = DIRECTION ( 'NONE',  ( 1.000000000000000000, 0.000000000000000000, -0.000000000000000000 ) ) ;
#243 = AXIS2_PLACEMENT_3D ( 'NONE', #103, #5, #242 ) ;
#244 = CARTESIAN_POINT ( 'NONE',  ( -9.000000000000001776, 0.000000000000000000, 257.0000000000000000 ) ) ;
#245 = EDGE_CURVE ( 'NONE', #129, #55, #34, .T. ) ;
#246 = ORIENTED_EDGE ( 'NONE', *, *, #116, .T. ) ;
#247 = ADVANCED_FACE ( 'NONE', ( #212 ), #16, .T. ) ;
#248 = VERTEX_POINT ( 'NONE', #208 ) ;
#249 = ORIENTED_EDGE ( 'NONE', *, *, #11, .F. ) ;
#250 = ORIENTED_EDGE ( 'NONE', *, *, #133, .F. ) ;
#251 = APPROVAL_ROLE ( '' ) ;
#252 = AXIS2_PLACEMENT_3D ( 'NONE', #22, #198, #159 ) ;
#253 =( NAMED_UNIT ( * ) PLANE_ANGLE_UNIT ( ) SI_UNIT ( $, .RADIAN. ) );
#254 = DIRECTION ( 'NONE',  ( 1.000000000000000000, 0.000000000000000000, 0.000000000000000000 ) ) ;
#255 = COORDINATED_UNIVERSAL_TIME_OFFSET ( 1, 0, .AHEAD. ) ;
ENDSEC;
END-ISO-10303-21;
