ISO-10303-21;
HEADER;
FILE_DESCRIPTION (( 'STEP AP203' ),
    '1' );
FILE_NAME ('1ffd.STEP',
    '2022-07-07T17:42:38',
    ( '' ),
    ( '' ),
    'SwSTEP 2.0',
    'SolidWorks 2019',
    '' );
FILE_SCHEMA (( 'CONFIG_CONTROL_DESIGN' ));
ENDSEC;

DATA;
#1 = ADVANCED_FACE ( 'NONE', ( #250 ), #110, .T. ) ;
#2 = VECTOR ( 'NONE', #141, 1000.000000000000000 ) ;
#3 = PERSON_AND_ORGANIZATION_ROLE ( 'creator' ) ;
#4 = AXIS2_PLACEMENT_3D ( 'NONE', #46, #183, #173 ) ;
#5 = ORIENTED_EDGE ( 'NONE', *, *, #112, .F. ) ;
#6 = EDGE_CURVE ( 'NONE', #163, #196, #66, .T. ) ;
#7 = DATE_AND_TIME ( #204, #248 ) ;
#8 = ORIENTED_EDGE ( 'NONE', *, *, #239, .T. ) ;
#9 = CARTESIAN_POINT ( 'NONE',  ( 2.750000000000000000, 3.367778697655221012E-16, 3.000000000000000000 ) ) ;
#10 = CIRCLE ( 'NONE', #109, 5.000000000000000000 ) ;
#11 = PLANE ( 'NONE',  #230 ) ;
#12 = PERSON_AND_ORGANIZATION_ROLE ( 'creator' ) ;
#13 = EDGE_CURVE ( 'NONE', #194, #196, #104, .T. ) ;
#14 = CARTESIAN_POINT ( 'NONE',  ( 0.000000000000000000, 0.000000000000000000, 203.0000000000000000 ) ) ;
#15 = CARTESIAN_POINT ( 'NONE',  ( 5.000000000000000000, 6.123233995736766282E-16, 3.000000000000000000 ) ) ;
#16 = FACE_OUTER_BOUND ( 'NONE', #237, .T. ) ;
#17 = CARTESIAN_POINT ( 'NONE',  ( 0.000000000000000000, 0.000000000000000000, 0.000000000000000000 ) ) ;
#18 = MECHANICAL_CONTEXT ( 'NONE', #85, 'mechanical' ) ;
#19 = VERTEX_POINT ( 'NONE', #15 ) ;
#20 = PRODUCT_DEFINITION_SHAPE ( 'NONE', 'NONE',  #54 ) ;
#21 = CC_DESIGN_PERSON_AND_ORGANIZATION_ASSIGNMENT ( #217, #148, ( #195 ) ) ;
#22 = ORIENTED_EDGE ( 'NONE', *, *, #192, .F. ) ;
#23 = PERSON_AND_ORGANIZATION_ROLE ( 'classification_officer' ) ;
#24 = PERSON_AND_ORGANIZATION ( #139, #201 ) ;
#25 = CARTESIAN_POINT ( 'NONE',  ( 0.000000000000000000, 0.000000000000000000, 3.000000000000000000 ) ) ;
#26 = VECTOR ( 'NONE', #244, 1000.000000000000000 ) ;
#27 = DIRECTION ( 'NONE',  ( 0.000000000000000000, 0.000000000000000000, 1.000000000000000000 ) ) ;
#28 = CARTESIAN_POINT ( 'NONE',  ( 0.000000000000000000, 0.000000000000000000, 203.0000000000000000 ) ) ;
#29 = DIRECTION ( 'NONE',  ( 0.000000000000000000, 0.000000000000000000, 1.000000000000000000 ) ) ;
#30 = DIRECTION ( 'NONE',  ( 0.000000000000000000, 0.000000000000000000, 1.000000000000000000 ) ) ;
#31 =( GEOMETRIC_REPRESENTATION_CONTEXT ( 3 ) GLOBAL_UNCERTAINTY_ASSIGNED_CONTEXT ( ( #71 ) ) GLOBAL_UNIT_ASSIGNED_CONTEXT ( ( #55, #159, #70 ) ) REPRESENTATION_CONTEXT ( 'NONE', 'WORKASPACE' ) );
#32 = CALENDAR_DATE ( 2022, 7, 7 ) ;
#33 = APPROVAL_DATE_TIME ( #53, #251 ) ;
#34 = CC_DESIGN_DATE_AND_TIME_ASSIGNMENT ( #7, #102, ( #242 ) ) ;
#35 = LINE ( 'NONE', #50, #145 ) ;
#36 = EDGE_CURVE ( 'NONE', #19, #194, #199, .T. ) ;
#37 = LOCAL_TIME ( 19, 42, 38.00000000000000000, #81 ) ;
#38 = LOCAL_TIME ( 19, 42, 38.00000000000000000, #161 ) ;
#39 = AXIS2_PLACEMENT_3D ( 'NONE', #28, #105, #47 ) ;
#40 = ORIENTED_EDGE ( 'NONE', *, *, #213, .T. ) ;
#41 = APPROVAL_DATE_TIME ( #243, #158 ) ;
#42 = DIRECTION ( 'NONE',  ( -1.000000000000000000, 0.000000000000000000, 0.000000000000000000 ) ) ;
#43 = EDGE_CURVE ( 'NONE', #218, #78, #162, .T. ) ;
#44 = CARTESIAN_POINT ( 'NONE',  ( 5.000000000000000000, 6.123233995736766282E-16, 0.000000000000000000 ) ) ;
#45 = PERSON_AND_ORGANIZATION ( #139, #201 ) ;
#46 = CARTESIAN_POINT ( 'NONE',  ( 0.000000000000000000, 0.000000000000000000, 3.000000000000000000 ) ) ;
#47 = DIRECTION ( 'NONE',  ( -1.000000000000000000, 0.000000000000000000, 0.000000000000000000 ) ) ;
#48 = CARTESIAN_POINT ( 'NONE',  ( -2.750000000000000000, 0.000000000000000000, 203.0000000000000000 ) ) ;
#49 = APPROVAL_STATUS ( 'not_yet_approved' ) ;
#50 = CARTESIAN_POINT ( 'NONE',  ( 2.750000000000000000, 3.367778697655221012E-16, 203.0000000000000000 ) ) ;
#51 = DIRECTION ( 'NONE',  ( 1.000000000000000000, 0.000000000000000000, 0.000000000000000000 ) ) ;
#52 = AXIS2_PLACEMENT_3D ( 'NONE', #184, #30, #187 ) ;
#53 = DATE_AND_TIME ( #209, #75 ) ;
#54 = PRODUCT_DEFINITION ( 'NEZNÁMÝ', '', #195, #98 ) ;
#55 =( LENGTH_UNIT ( ) NAMED_UNIT ( * ) SI_UNIT ( .MILLI., .METRE. ) );
#56 = VERTEX_POINT ( 'NONE', #103 ) ;
#57 = ORIENTED_EDGE ( 'NONE', *, *, #13, .T. ) ;
#58 = ORIENTED_EDGE ( 'NONE', *, *, #36, .T. ) ;
#59 = CC_DESIGN_APPROVAL ( #158, ( #242 ) ) ;
#60 = CYLINDRICAL_SURFACE ( 'NONE', #137, 5.000000000000000000 ) ;
#61 = DIRECTION ( 'NONE',  ( 1.000000000000000000, 0.000000000000000000, 0.000000000000000000 ) ) ;
#62 = AXIS2_PLACEMENT_3D ( 'NONE', #25, #29, #61 ) ;
#63 = FACE_BOUND ( 'NONE', #132, .T. ) ;
#64 = PLANE ( 'NONE',  #114 ) ;
#65 = CARTESIAN_POINT ( 'NONE',  ( 0.000000000000000000, 0.000000000000000000, 3.000000000000000000 ) ) ;
#66 = CIRCLE ( 'NONE', #223, 5.000000000000000000 ) ;
#67 = DATE_AND_TIME ( #111, #38 ) ;
#68 = ADVANCED_FACE ( 'NONE', ( #16 ), #64, .T. ) ;
#69 = APPROVAL_STATUS ( 'not_yet_approved' ) ;
#70 =( NAMED_UNIT ( * ) SI_UNIT ( $, .STERADIAN. ) SOLID_ANGLE_UNIT ( ) );
#71 = UNCERTAINTY_MEASURE_WITH_UNIT (LENGTH_MEASURE( 1.000000000000000082E-05 ), #55, 'distance_accuracy_value', 'NONE');
#72 = CC_DESIGN_APPROVAL ( #130, ( #195 ) ) ;
#73 = ORIENTED_EDGE ( 'NONE', *, *, #36, .F. ) ;
#74 = CIRCLE ( 'NONE', #52, 5.000000000000000000 ) ;
#75 = LOCAL_TIME ( 19, 42, 38.00000000000000000, #214 ) ;
#76 = CC_DESIGN_PERSON_AND_ORGANIZATION_ASSIGNMENT ( #45, #12, ( #195 ) ) ;
#77 = EDGE_LOOP ( 'NONE', ( #181, #167, #235, #121 ) ) ;
#78 = VERTEX_POINT ( 'NONE', #48 ) ;
#79 = EDGE_LOOP ( 'NONE', ( #144, #165, #57, #216 ) ) ;
#80 = CLOSED_SHELL ( 'NONE', ( #175, #142, #1, #106, #90, #215, #68 ) ) ;
#81 = COORDINATED_UNIVERSAL_TIME_OFFSET ( 1, 0, .AHEAD. ) ;
#82 = FACE_OUTER_BOUND ( 'NONE', #240, .T. ) ;
#83 = CARTESIAN_POINT ( 'NONE',  ( 0.000000000000000000, 0.000000000000000000, 0.000000000000000000 ) ) ;
#84 = DIRECTION ( 'NONE',  ( 1.000000000000000000, 0.000000000000000000, 0.000000000000000000 ) ) ;
#85 = APPLICATION_CONTEXT ( 'configuration controlled 3d designs of mechanical parts and assemblies' ) ;
#86 = APPROVAL_ROLE ( '' ) ;
#87 = DIRECTION ( 'NONE',  ( -0.000000000000000000, -0.000000000000000000, -1.000000000000000000 ) ) ;
#88 = CARTESIAN_POINT ( 'NONE',  ( 0.000000000000000000, 0.000000000000000000, 0.000000000000000000 ) ) ;
#89 = AXIS2_PLACEMENT_3D ( 'NONE', #226, #152, #84 ) ;
#90 = ADVANCED_FACE ( 'NONE', ( #149 ), #11, .F. ) ;
#91 = CARTESIAN_POINT ( 'NONE',  ( 5.000000000000000000, 6.123233995736766282E-16, 3.000000000000000000 ) ) ;
#92 = CIRCLE ( 'NONE', #140, 2.750000000000000000 ) ;
#93 = CC_DESIGN_DATE_AND_TIME_ASSIGNMENT ( #67, #156, ( #54 ) ) ;
#94 = CARTESIAN_POINT ( 'NONE',  ( 2.750000000000000000, 3.367778697655221012E-16, 203.0000000000000000 ) ) ;
#95 = CIRCLE ( 'NONE', #133, 2.750000000000000000 ) ;
#96 = CC_DESIGN_PERSON_AND_ORGANIZATION_ASSIGNMENT ( #177, #3, ( #54 ) ) ;
#97 = ORIENTED_EDGE ( 'NONE', *, *, #197, .F. ) ;
#98 = DESIGN_CONTEXT ( 'detailed design', #236, 'design' ) ;
#99 = APPROVAL_PERSON_ORGANIZATION ( #228, #130, #116 ) ;
#100 = ORIENTED_EDGE ( 'NONE', *, *, #186, .T. ) ;
#101 = VERTEX_POINT ( 'NONE', #9 ) ;
#102 = DATE_TIME_ROLE ( 'classification_date' ) ;
#103 = CARTESIAN_POINT ( 'NONE',  ( -2.750000000000000000, 0.000000000000000000, 3.000000000000000000 ) ) ;
#104 = LINE ( 'NONE', #245, #26 ) ;
#105 = DIRECTION ( 'NONE',  ( -0.000000000000000000, -0.000000000000000000, -1.000000000000000000 ) ) ;
#106 = ADVANCED_FACE ( 'NONE', ( #63, #82 ), #172, .T. ) ;
#107 = AXIS2_PLACEMENT_3D ( 'NONE', #65, #87, #155 ) ;
#108 = CARTESIAN_POINT ( 'NONE',  ( 0.000000000000000000, 0.000000000000000000, 203.0000000000000000 ) ) ;
#109 = AXIS2_PLACEMENT_3D ( 'NONE', #88, #208, #191 ) ;
#110 = CYLINDRICAL_SURFACE ( 'NONE', #107, 5.000000000000000000 ) ;
#111 = CALENDAR_DATE ( 2022, 7, 7 ) ;
#112 = EDGE_CURVE ( 'NONE', #78, #56, #131, .T. ) ;
#113 = DIRECTION ( 'NONE',  ( -0.000000000000000000, -0.000000000000000000, -1.000000000000000000 ) ) ;
#114 = AXIS2_PLACEMENT_3D ( 'NONE', #247, #27, #182 ) ;
#115 = ADVANCED_BREP_SHAPE_REPRESENTATION ( '1ffd', ( #146, #219 ), #31 ) ;
#116 = APPROVAL_ROLE ( '' ) ;
#117 = PERSON_AND_ORGANIZATION_ROLE ( 'design_owner' ) ;
#118 = CARTESIAN_POINT ( 'NONE',  ( -5.000000000000000000, 0.000000000000000000, 3.000000000000000000 ) ) ;
#119 = EDGE_CURVE ( 'NONE', #56, #101, #179, .T. ) ;
#120 = ORIENTED_EDGE ( 'NONE', *, *, #43, .T. ) ;
#121 = ORIENTED_EDGE ( 'NONE', *, *, #119, .T. ) ;
#122 = VECTOR ( 'NONE', #206, 1000.000000000000000 ) ;
#123 = ORIENTED_EDGE ( 'NONE', *, *, #6, .T. ) ;
#124 = CC_DESIGN_PERSON_AND_ORGANIZATION_ASSIGNMENT ( #24, #23, ( #242 ) ) ;
#125 = SECURITY_CLASSIFICATION_LEVEL ( 'unclassified' ) ;
#126 = ORIENTED_EDGE ( 'NONE', *, *, #13, .F. ) ;
#127 = DIRECTION ( 'NONE',  ( 1.000000000000000000, 0.000000000000000000, 0.000000000000000000 ) ) ;
#128 = SHAPE_DEFINITION_REPRESENTATION ( #20, #115 ) ;
#129 = DATE_AND_TIME ( #32, #232 ) ;
#130 = APPROVAL ( #49, 'NEURÈENÝ' ) ;
#131 = LINE ( 'NONE', #200, #122 ) ;
#132 = EDGE_LOOP ( 'NONE', ( #198, #97 ) ) ;
#133 = AXIS2_PLACEMENT_3D ( 'NONE', #108, #203, #249 ) ;
#134 = CC_DESIGN_APPROVAL ( #251, ( #54 ) ) ;
#135 = DIRECTION ( 'NONE',  ( 1.000000000000000000, 0.000000000000000000, -0.000000000000000000 ) ) ;
#136 = COORDINATED_UNIVERSAL_TIME_OFFSET ( 1, 0, .AHEAD. ) ;
#137 = AXIS2_PLACEMENT_3D ( 'NONE', #147, #222, #42 ) ;
#138 = CARTESIAN_POINT ( 'NONE',  ( 0.000000000000000000, 0.000000000000000000, 203.0000000000000000 ) ) ;
#139 = PERSON ( 'NEURÈENÝ', 'NEURÈENÝ', 'NEURÈENÝ', ('NEURÈENÝ'), ('NEURÈENÝ'), ('NEURÈENÝ') ) ;
#140 = AXIS2_PLACEMENT_3D ( 'NONE', #254, #255, #51 ) ;
#141 = DIRECTION ( 'NONE',  ( -0.000000000000000000, -0.000000000000000000, -1.000000000000000000 ) ) ;
#142 = ADVANCED_FACE ( 'NONE', ( #169 ), #60, .T. ) ;
#143 = EDGE_LOOP ( 'NONE', ( #22, #164 ) ) ;
#144 = ORIENTED_EDGE ( 'NONE', *, *, #239, .F. ) ;
#145 = VECTOR ( 'NONE', #174, 1000.000000000000000 ) ;
#146 = MANIFOLD_SOLID_BREP ( 'Pøidat vysunutím3', #80 ) ;
#147 = CARTESIAN_POINT ( 'NONE',  ( 0.000000000000000000, 0.000000000000000000, 3.000000000000000000 ) ) ;
#148 = PERSON_AND_ORGANIZATION_ROLE ( 'design_supplier' ) ;
#149 = FACE_OUTER_BOUND ( 'NONE', #143, .T. ) ;
#150 = PERSON_AND_ORGANIZATION ( #139, #201 ) ;
#151 = AXIS2_PLACEMENT_3D ( 'NONE', #138, #113, #189 ) ;
#152 = DIRECTION ( 'NONE',  ( 0.000000000000000000, 0.000000000000000000, 1.000000000000000000 ) ) ;
#153 = FACE_OUTER_BOUND ( 'NONE', #241, .T. ) ;
#154 = PRODUCT_RELATED_PRODUCT_CATEGORY ( 'detail', '', ( #193 ) ) ;
#155 = DIRECTION ( 'NONE',  ( -1.000000000000000000, 0.000000000000000000, 0.000000000000000000 ) ) ;
#156 = DATE_TIME_ROLE ( 'creation_date' ) ;
#157 = FACE_OUTER_BOUND ( 'NONE', #77, .T. ) ;
#158 = APPROVAL ( #221, 'NEURÈENÝ' ) ;
#159 =( NAMED_UNIT ( * ) PLANE_ANGLE_UNIT ( ) SI_UNIT ( $, .RADIAN. ) );
#160 = APPROVAL_PERSON_ORGANIZATION ( #176, #251, #233 ) ;
#161 = COORDINATED_UNIVERSAL_TIME_OFFSET ( 1, 0, .AHEAD. ) ;
#162 = CIRCLE ( 'NONE', #246, 2.750000000000000000 ) ;
#163 = VERTEX_POINT ( 'NONE', #44 ) ;
#164 = ORIENTED_EDGE ( 'NONE', *, *, #6, .F. ) ;
#165 = ORIENTED_EDGE ( 'NONE', *, *, #186, .F. ) ;
#166 = ORIENTED_EDGE ( 'NONE', *, *, #170, .T. ) ;
#167 = ORIENTED_EDGE ( 'NONE', *, *, #170, .F. ) ;
#168 = CALENDAR_DATE ( 2022, 7, 7 ) ;
#169 = FACE_OUTER_BOUND ( 'NONE', #180, .T. ) ;
#170 = EDGE_CURVE ( 'NONE', #78, #218, #95, .T. ) ;
#171 = DIRECTION ( 'NONE',  ( 1.000000000000000000, 0.000000000000000000, 0.000000000000000000 ) ) ;
#172 = PLANE ( 'NONE',  #4 ) ;
#173 = DIRECTION ( 'NONE',  ( 1.000000000000000000, 0.000000000000000000, -0.000000000000000000 ) ) ;
#174 = DIRECTION ( 'NONE',  ( -0.000000000000000000, -0.000000000000000000, -1.000000000000000000 ) ) ;
#175 = ADVANCED_FACE ( 'NONE', ( #153 ), #185, .T. ) ;
#176 = PERSON_AND_ORGANIZATION ( #139, #201 ) ;
#177 = PERSON_AND_ORGANIZATION ( #139, #201 ) ;
#178 = ORIENTED_EDGE ( 'NONE', *, *, #197, .T. ) ;
#179 = CIRCLE ( 'NONE', #62, 2.750000000000000000 ) ;
#180 = EDGE_LOOP ( 'NONE', ( #73, #8, #123, #126 ) ) ;
#181 = ORIENTED_EDGE ( 'NONE', *, *, #213, .F. ) ;
#182 = DIRECTION ( 'NONE',  ( 1.000000000000000000, 0.000000000000000000, -0.000000000000000000 ) ) ;
#183 = DIRECTION ( 'NONE',  ( 0.000000000000000000, 0.000000000000000000, 1.000000000000000000 ) ) ;
#184 = CARTESIAN_POINT ( 'NONE',  ( 0.000000000000000000, 0.000000000000000000, 3.000000000000000000 ) ) ;
#185 = CYLINDRICAL_SURFACE ( 'NONE', #39, 2.750000000000000000 ) ;
#186 = EDGE_CURVE ( 'NONE', #194, #19, #74, .T. ) ;
#187 = DIRECTION ( 'NONE',  ( 1.000000000000000000, 0.000000000000000000, 0.000000000000000000 ) ) ;
#188 = CARTESIAN_POINT ( 'NONE',  ( -5.000000000000000000, 0.000000000000000000, 0.000000000000000000 ) ) ;
#189 = DIRECTION ( 'NONE',  ( -1.000000000000000000, 0.000000000000000000, 0.000000000000000000 ) ) ;
#190 = APPLICATION_PROTOCOL_DEFINITION ( 'international standard', 'config_control_design', 1994, #236 ) ;
#191 = DIRECTION ( 'NONE',  ( 1.000000000000000000, 0.000000000000000000, 0.000000000000000000 ) ) ;
#192 = EDGE_CURVE ( 'NONE', #196, #163, #10, .T. ) ;
#193 = PRODUCT ( '1ffd', '1ffd', '', ( #18 ) ) ;
#194 = VERTEX_POINT ( 'NONE', #118 ) ;
#195 = PRODUCT_DEFINITION_FORMATION_WITH_SPECIFIED_SOURCE ( 'LIBOVOLNÝ', '', #193, .NOT_KNOWN. ) ;
#196 = VERTEX_POINT ( 'NONE', #188 ) ;
#197 = EDGE_CURVE ( 'NONE', #101, #56, #92, .T. ) ;
#198 = ORIENTED_EDGE ( 'NONE', *, *, #119, .F. ) ;
#199 = CIRCLE ( 'NONE', #89, 5.000000000000000000 ) ;
#200 = CARTESIAN_POINT ( 'NONE',  ( -2.750000000000000000, 0.000000000000000000, 203.0000000000000000 ) ) ;
#201 = ORGANIZATION ( 'NEURÈENÝ', 'NEURÈENÝ', '' ) ;
#202 = APPROVAL_DATE_TIME ( #129, #130 ) ;
#203 = DIRECTION ( 'NONE',  ( 0.000000000000000000, 0.000000000000000000, 1.000000000000000000 ) ) ;
#204 = CALENDAR_DATE ( 2022, 7, 7 ) ;
#205 = CC_DESIGN_PERSON_AND_ORGANIZATION_ASSIGNMENT ( #210, #117, ( #193 ) ) ;
#206 = DIRECTION ( 'NONE',  ( -0.000000000000000000, -0.000000000000000000, -1.000000000000000000 ) ) ;
#207 = DIRECTION ( 'NONE',  ( 0.000000000000000000, 0.000000000000000000, 1.000000000000000000 ) ) ;
#208 = DIRECTION ( 'NONE',  ( 0.000000000000000000, 0.000000000000000000, 1.000000000000000000 ) ) ;
#209 = CALENDAR_DATE ( 2022, 7, 7 ) ;
#210 = PERSON_AND_ORGANIZATION ( #139, #201 ) ;
#211 = APPROVAL_PERSON_ORGANIZATION ( #150, #158, #86 ) ;
#212 = LINE ( 'NONE', #91, #2 ) ;
#213 = EDGE_CURVE ( 'NONE', #218, #101, #35, .T. ) ;
#214 = COORDINATED_UNIVERSAL_TIME_OFFSET ( 1, 0, .AHEAD. ) ;
#215 = ADVANCED_FACE ( 'NONE', ( #157 ), #252, .T. ) ;
#216 = ORIENTED_EDGE ( 'NONE', *, *, #192, .T. ) ;
#217 = PERSON_AND_ORGANIZATION ( #139, #201 ) ;
#218 = VERTEX_POINT ( 'NONE', #94 ) ;
#219 = AXIS2_PLACEMENT_3D ( 'NONE', #17, #229, #234 ) ;
#220 = COORDINATED_UNIVERSAL_TIME_OFFSET ( 1, 0, .AHEAD. ) ;
#221 = APPROVAL_STATUS ( 'not_yet_approved' ) ;
#222 = DIRECTION ( 'NONE',  ( -0.000000000000000000, -0.000000000000000000, -1.000000000000000000 ) ) ;
#223 = AXIS2_PLACEMENT_3D ( 'NONE', #83, #227, #127 ) ;
#224 = DIRECTION ( 'NONE',  ( 0.000000000000000000, 0.000000000000000000, 1.000000000000000000 ) ) ;
#225 = CARTESIAN_POINT ( 'NONE',  ( 0.000000000000000000, 0.000000000000000000, 0.000000000000000000 ) ) ;
#226 = CARTESIAN_POINT ( 'NONE',  ( 0.000000000000000000, 0.000000000000000000, 3.000000000000000000 ) ) ;
#227 = DIRECTION ( 'NONE',  ( 0.000000000000000000, 0.000000000000000000, 1.000000000000000000 ) ) ;
#228 = PERSON_AND_ORGANIZATION ( #139, #201 ) ;
#229 = DIRECTION ( 'NONE',  ( 0.000000000000000000, 0.000000000000000000, 1.000000000000000000 ) ) ;
#230 = AXIS2_PLACEMENT_3D ( 'NONE', #225, #207, #135 ) ;
#231 = APPLICATION_PROTOCOL_DEFINITION ( 'international standard', 'config_control_design', 1994, #85 ) ;
#232 = LOCAL_TIME ( 19, 42, 38.00000000000000000, #136 ) ;
#233 = APPROVAL_ROLE ( '' ) ;
#234 = DIRECTION ( 'NONE',  ( 1.000000000000000000, 0.000000000000000000, 0.000000000000000000 ) ) ;
#235 = ORIENTED_EDGE ( 'NONE', *, *, #112, .T. ) ;
#236 = APPLICATION_CONTEXT ( 'configuration controlled 3d designs of mechanical parts and assemblies' ) ;
#237 = EDGE_LOOP ( 'NONE', ( #166, #120 ) ) ;
#238 = ORIENTED_EDGE ( 'NONE', *, *, #43, .F. ) ;
#239 = EDGE_CURVE ( 'NONE', #19, #163, #212, .T. ) ;
#240 = EDGE_LOOP ( 'NONE', ( #100, #58 ) ) ;
#241 = EDGE_LOOP ( 'NONE', ( #238, #40, #178, #5 ) ) ;
#242 = SECURITY_CLASSIFICATION ( '', '', #125 ) ;
#243 = DATE_AND_TIME ( #168, #37 ) ;
#244 = DIRECTION ( 'NONE',  ( -0.000000000000000000, -0.000000000000000000, -1.000000000000000000 ) ) ;
#245 = CARTESIAN_POINT ( 'NONE',  ( -5.000000000000000000, 0.000000000000000000, 3.000000000000000000 ) ) ;
#246 = AXIS2_PLACEMENT_3D ( 'NONE', #14, #224, #171 ) ;
#247 = CARTESIAN_POINT ( 'NONE',  ( 0.000000000000000000, 0.000000000000000000, 203.0000000000000000 ) ) ;
#248 = LOCAL_TIME ( 19, 42, 38.00000000000000000, #220 ) ;
#249 = DIRECTION ( 'NONE',  ( 1.000000000000000000, 0.000000000000000000, 0.000000000000000000 ) ) ;
#250 = FACE_OUTER_BOUND ( 'NONE', #79, .T. ) ;
#251 = APPROVAL ( #69, 'NEURÈENÝ' ) ;
#252 = CYLINDRICAL_SURFACE ( 'NONE', #151, 2.750000000000000000 ) ;
#253 = CC_DESIGN_SECURITY_CLASSIFICATION ( #242, ( #195 ) ) ;
#254 = CARTESIAN_POINT ( 'NONE',  ( 0.000000000000000000, 0.000000000000000000, 3.000000000000000000 ) ) ;
#255 = DIRECTION ( 'NONE',  ( 0.000000000000000000, 0.000000000000000000, 1.000000000000000000 ) ) ;
ENDSEC;
END-ISO-10303-21;
