ISO-10303-21;
HEADER;
FILE_DESCRIPTION (( 'STEP AP203' ),
    '1' );
FILE_NAME ('b3b3.STEP',
    '2022-07-07T17:51:46',
    ( '' ),
    ( '' ),
    'SwSTEP 2.0',
    'SolidWorks 2019',
    '' );
FILE_SCHEMA (( 'CONFIG_CONTROL_DESIGN' ));
ENDSEC;

DATA;
#1 = ADVANCED_FACE ( 'NONE', ( #69, #229 ), #49, .T. ) ;
#2 = DIRECTION ( 'NONE',  ( -0.000000000000000000, -0.000000000000000000, -1.000000000000000000 ) ) ;
#3 = AXIS2_PLACEMENT_3D ( 'NONE', #130, #68, #48 ) ;
#4 = DIRECTION ( 'NONE',  ( 0.000000000000000000, 0.000000000000000000, 1.000000000000000000 ) ) ;
#5 = ORIENTED_EDGE ( 'NONE', *, *, #230, .F. ) ;
#6 = APPROVAL ( #197, 'NEURÈENÝ' ) ;
#7 = DATE_AND_TIME ( #107, #135 ) ;
#8 = CC_DESIGN_APPROVAL ( #87, ( #65 ) ) ;
#9 = CIRCLE ( 'NONE', #125, 4.000000000000000000 ) ;
#10 = CALENDAR_DATE ( 2022, 7, 7 ) ;
#11 = DATE_TIME_ROLE ( 'creation_date' ) ;
#12 = APPROVAL_PERSON_ORGANIZATION ( #61, #87, #127 ) ;
#13 = CARTESIAN_POINT ( 'NONE',  ( 0.000000000000000000, 0.000000000000000000, 203.0000000000000000 ) ) ;
#14 = PLANE ( 'NONE',  #243 ) ;
#15 = LOCAL_TIME ( 19, 51, 46.00000000000000000, #186 ) ;
#16 = FACE_OUTER_BOUND ( 'NONE', #218, .T. ) ;
#17 = FACE_OUTER_BOUND ( 'NONE', #56, .T. ) ;
#18 = ADVANCED_FACE ( 'NONE', ( #170 ), #14, .F. ) ;
#19 = APPLICATION_PROTOCOL_DEFINITION ( 'international standard', 'config_control_design', 1994, #93 ) ;
#20 = CIRCLE ( 'NONE', #212, 2.000000000000000000 ) ;
#21 = CARTESIAN_POINT ( 'NONE',  ( 0.000000000000000000, 0.000000000000000000, 0.000000000000000000 ) ) ;
#22 = VERTEX_POINT ( 'NONE', #111 ) ;
#23 = ORIENTED_EDGE ( 'NONE', *, *, #99, .F. ) ;
#24 = CIRCLE ( 'NONE', #255, 4.000000000000000000 ) ;
#25 = EDGE_CURVE ( 'NONE', #22, #162, #75, .T. ) ;
#26 = DATE_AND_TIME ( #126, #167 ) ;
#27 = PERSON_AND_ORGANIZATION_ROLE ( 'classification_officer' ) ;
#28 = CALENDAR_DATE ( 2022, 7, 7 ) ;
#29 = DESIGN_CONTEXT ( 'detailed design', #93, 'design' ) ;
#30 = DATE_AND_TIME ( #10, #159 ) ;
#31 = PRODUCT_DEFINITION_FORMATION_WITH_SPECIFIED_SOURCE ( 'LIBOVOLNÝ', '', #221, .NOT_KNOWN. ) ;
#32 = CYLINDRICAL_SURFACE ( 'NONE', #33, 4.000000000000000000 ) ;
#33 = AXIS2_PLACEMENT_3D ( 'NONE', #192, #73, #231 ) ;
#34 = LINE ( 'NONE', #215, #102 ) ;
#35 = CARTESIAN_POINT ( 'NONE',  ( 0.000000000000000000, 0.000000000000000000, 3.000000000000000000 ) ) ;
#36 = CARTESIAN_POINT ( 'NONE',  ( 0.000000000000000000, 0.000000000000000000, 3.000000000000000000 ) ) ;
#37 = CARTESIAN_POINT ( 'NONE',  ( -2.000000000000000000, 0.000000000000000000, 203.0000000000000000 ) ) ;
#38 = CARTESIAN_POINT ( 'NONE',  ( 2.000000000000000000, 2.449293598294706414E-16, 203.0000000000000000 ) ) ;
#39 = ORIENTED_EDGE ( 'NONE', *, *, #142, .F. ) ;
#40 = LINE ( 'NONE', #235, #94 ) ;
#41 = EDGE_LOOP ( 'NONE', ( #39, #184, #80, #140 ) ) ;
#42 = ADVANCED_FACE ( 'NONE', ( #16 ), #132, .T. ) ;
#43 = EDGE_LOOP ( 'NONE', ( #5, #240 ) ) ;
#44 = ORGANIZATION ( 'NEURÈENÝ', 'NEURÈENÝ', '' ) ;
#45 = VERTEX_POINT ( 'NONE', #193 ) ;
#46 = APPROVAL_DATE_TIME ( #30, #87 ) ;
#47 = PERSON_AND_ORGANIZATION_ROLE ( 'creator' ) ;
#48 = DIRECTION ( 'NONE',  ( 1.000000000000000000, 0.000000000000000000, -0.000000000000000000 ) ) ;
#49 = PLANE ( 'NONE',  #3 ) ;
#50 = DIRECTION ( 'NONE',  ( 0.000000000000000000, 0.000000000000000000, 1.000000000000000000 ) ) ;
#51 = AXIS2_PLACEMENT_3D ( 'NONE', #156, #194, #90 ) ;
#52 = PERSON_AND_ORGANIZATION ( #242, #44 ) ;
#53 = ADVANCED_FACE ( 'NONE', ( #72 ), #32, .T. ) ;
#54 = AXIS2_PLACEMENT_3D ( 'NONE', #91, #254, #155 ) ;
#55 =( LENGTH_UNIT ( ) NAMED_UNIT ( * ) SI_UNIT ( .MILLI., .METRE. ) );
#56 = EDGE_LOOP ( 'NONE', ( #123, #59, #158, #181 ) ) ;
#57 = DIRECTION ( 'NONE',  ( -0.000000000000000000, -0.000000000000000000, -1.000000000000000000 ) ) ;
#58 = MECHANICAL_CONTEXT ( 'NONE', #78, 'mechanical' ) ;
#59 = ORIENTED_EDGE ( 'NONE', *, *, #62, .F. ) ;
#60 = ORIENTED_EDGE ( 'NONE', *, *, #228, .F. ) ;
#61 = PERSON_AND_ORGANIZATION ( #242, #44 ) ;
#62 = EDGE_CURVE ( 'NONE', #166, #216, #165, .T. ) ;
#63 = MANIFOLD_SOLID_BREP ( 'Pøidat vysunutím3', #227 ) ;
#64 = PERSON_AND_ORGANIZATION_ROLE ( 'design_supplier' ) ;
#65 = SECURITY_CLASSIFICATION ( '', '', #84 ) ;
#66 = CALENDAR_DATE ( 2022, 7, 7 ) ;
#67 = ADVANCED_BREP_SHAPE_REPRESENTATION ( 'b3b3', ( #63, #238 ), #152 ) ;
#68 = DIRECTION ( 'NONE',  ( 0.000000000000000000, 0.000000000000000000, 1.000000000000000000 ) ) ;
#69 = FACE_BOUND ( 'NONE', #43, .T. ) ;
#70 = UNCERTAINTY_MEASURE_WITH_UNIT (LENGTH_MEASURE( 1.000000000000000082E-05 ), #55, 'distance_accuracy_value', 'NONE');
#71 = DIRECTION ( 'NONE',  ( -0.000000000000000000, -0.000000000000000000, -1.000000000000000000 ) ) ;
#72 = FACE_OUTER_BOUND ( 'NONE', #236, .T. ) ;
#73 = DIRECTION ( 'NONE',  ( -0.000000000000000000, -0.000000000000000000, -1.000000000000000000 ) ) ;
#74 = DIRECTION ( 'NONE',  ( 0.000000000000000000, 0.000000000000000000, 1.000000000000000000 ) ) ;
#75 = CIRCLE ( 'NONE', #54, 2.000000000000000000 ) ;
#76 = CARTESIAN_POINT ( 'NONE',  ( 0.000000000000000000, 0.000000000000000000, 203.0000000000000000 ) ) ;
#77 = ORIENTED_EDGE ( 'NONE', *, *, #214, .F. ) ;
#78 = APPLICATION_CONTEXT ( 'configuration controlled 3d designs of mechanical parts and assemblies' ) ;
#79 = CARTESIAN_POINT ( 'NONE',  ( 0.000000000000000000, 0.000000000000000000, 0.000000000000000000 ) ) ;
#80 = ORIENTED_EDGE ( 'NONE', *, *, #228, .T. ) ;
#81 = ORIENTED_EDGE ( 'NONE', *, *, #196, .F. ) ;
#82 = AXIS2_PLACEMENT_3D ( 'NONE', #226, #114, #211 ) ;
#83 = SHAPE_DEFINITION_REPRESENTATION ( #149, #67 ) ;
#84 = SECURITY_CLASSIFICATION_LEVEL ( 'unclassified' ) ;
#85 = CIRCLE ( 'NONE', #171, 4.000000000000000000 ) ;
#86 = FACE_OUTER_BOUND ( 'NONE', #41, .T. ) ;
#87 = APPROVAL ( #150, 'NEURÈENÝ' ) ;
#88 = DIRECTION ( 'NONE',  ( 1.000000000000000000, 0.000000000000000000, 0.000000000000000000 ) ) ;
#89 = FACE_OUTER_BOUND ( 'NONE', #202, .T. ) ;
#90 = DIRECTION ( 'NONE',  ( -1.000000000000000000, 0.000000000000000000, 0.000000000000000000 ) ) ;
#91 = CARTESIAN_POINT ( 'NONE',  ( 0.000000000000000000, 0.000000000000000000, 3.000000000000000000 ) ) ;
#92 = CARTESIAN_POINT ( 'NONE',  ( 4.000000000000000000, 4.898587196589412829E-16, 3.000000000000000000 ) ) ;
#93 = APPLICATION_CONTEXT ( 'configuration controlled 3d designs of mechanical parts and assemblies' ) ;
#94 = VECTOR ( 'NONE', #57, 1000.000000000000000 ) ;
#95 = ADVANCED_FACE ( 'NONE', ( #89 ), #112, .T. ) ;
#96 = CARTESIAN_POINT ( 'NONE',  ( 0.000000000000000000, 0.000000000000000000, 3.000000000000000000 ) ) ;
#97 = ORIENTED_EDGE ( 'NONE', *, *, #62, .T. ) ;
#98 =( NAMED_UNIT ( * ) SI_UNIT ( $, .STERADIAN. ) SOLID_ANGLE_UNIT ( ) );
#99 = EDGE_CURVE ( 'NONE', #179, #100, #9, .T. ) ;
#100 = VERTEX_POINT ( 'NONE', #195 ) ;
#101 = ORIENTED_EDGE ( 'NONE', *, *, #99, .T. ) ;
#102 = VECTOR ( 'NONE', #117, 1000.000000000000000 ) ;
#103 = COORDINATED_UNIVERSAL_TIME_OFFSET ( 1, 0, .AHEAD. ) ;
#104 = VECTOR ( 'NONE', #161, 1000.000000000000000 ) ;
#105 = COORDINATED_UNIVERSAL_TIME_OFFSET ( 1, 0, .AHEAD. ) ;
#106 = AXIS2_PLACEMENT_3D ( 'NONE', #36, #71, #157 ) ;
#107 = CALENDAR_DATE ( 2022, 7, 7 ) ;
#108 = PERSON_AND_ORGANIZATION ( #242, #44 ) ;
#109 = CC_DESIGN_PERSON_AND_ORGANIZATION_ASSIGNMENT ( #153, #168, ( #190 ) ) ;
#110 = ORIENTED_EDGE ( 'NONE', *, *, #142, .T. ) ;
#111 = CARTESIAN_POINT ( 'NONE',  ( 2.000000000000000000, 2.449293598294706414E-16, 3.000000000000000000 ) ) ;
#112 = PLANE ( 'NONE',  #82 ) ;
#113 = APPROVAL_PERSON_ORGANIZATION ( #176, #6, #205 ) ;
#114 = DIRECTION ( 'NONE',  ( 0.000000000000000000, 0.000000000000000000, 1.000000000000000000 ) ) ;
#115 = PERSON_AND_ORGANIZATION_ROLE ( 'design_owner' ) ;
#116 = ADVANCED_FACE ( 'NONE', ( #86 ), #213, .T. ) ;
#117 = DIRECTION ( 'NONE',  ( -0.000000000000000000, -0.000000000000000000, -1.000000000000000000 ) ) ;
#118 = ORIENTED_EDGE ( 'NONE', *, *, #214, .T. ) ;
#119 = LINE ( 'NONE', #38, #204 ) ;
#120 = EDGE_LOOP ( 'NONE', ( #101, #110 ) ) ;
#121 = DIRECTION ( 'NONE',  ( 1.000000000000000000, 0.000000000000000000, 0.000000000000000000 ) ) ;
#122 = VERTEX_POINT ( 'NONE', #248 ) ;
#123 = ORIENTED_EDGE ( 'NONE', *, *, #223, .F. ) ;
#124 = CC_DESIGN_APPROVAL ( #175, ( #31 ) ) ;
#125 = AXIS2_PLACEMENT_3D ( 'NONE', #35, #172, #134 ) ;
#126 = CALENDAR_DATE ( 2022, 7, 7 ) ;
#127 = APPROVAL_ROLE ( '' ) ;
#128 = APPROVAL_DATE_TIME ( #7, #175 ) ;
#129 = CC_DESIGN_PERSON_AND_ORGANIZATION_ASSIGNMENT ( #108, #47, ( #31 ) ) ;
#130 = CARTESIAN_POINT ( 'NONE',  ( 0.000000000000000000, 0.000000000000000000, 3.000000000000000000 ) ) ;
#131 = AXIS2_PLACEMENT_3D ( 'NONE', #13, #50, #224 ) ;
#132 = CYLINDRICAL_SURFACE ( 'NONE', #183, 2.000000000000000000 ) ;
#133 = DIRECTION ( 'NONE',  ( 0.000000000000000000, 0.000000000000000000, 1.000000000000000000 ) ) ;
#134 = DIRECTION ( 'NONE',  ( 1.000000000000000000, 0.000000000000000000, 0.000000000000000000 ) ) ;
#135 = LOCAL_TIME ( 19, 51, 46.00000000000000000, #103 ) ;
#136 = DIRECTION ( 'NONE',  ( 1.000000000000000000, 0.000000000000000000, 0.000000000000000000 ) ) ;
#137 = DIRECTION ( 'NONE',  ( 0.000000000000000000, 0.000000000000000000, 1.000000000000000000 ) ) ;
#138 = ORIENTED_EDGE ( 'NONE', *, *, #191, .T. ) ;
#139 = CC_DESIGN_DATE_AND_TIME_ASSIGNMENT ( #188, #154, ( #65 ) ) ;
#140 = ORIENTED_EDGE ( 'NONE', *, *, #191, .F. ) ;
#141 = DIRECTION ( 'NONE',  ( 1.000000000000000000, 0.000000000000000000, 0.000000000000000000 ) ) ;
#142 = EDGE_CURVE ( 'NONE', #100, #179, #146, .T. ) ;
#143 = DIRECTION ( 'NONE',  ( 0.000000000000000000, 0.000000000000000000, 1.000000000000000000 ) ) ;
#144 = ORIENTED_EDGE ( 'NONE', *, *, #233, .F. ) ;
#145 = CC_DESIGN_DATE_AND_TIME_ASSIGNMENT ( #151, #11, ( #190 ) ) ;
#146 = CIRCLE ( 'NONE', #251, 4.000000000000000000 ) ;
#147 = ADVANCED_FACE ( 'NONE', ( #17 ), #247, .T. ) ;
#148 = EDGE_CURVE ( 'NONE', #166, #162, #34, .T. ) ;
#149 = PRODUCT_DEFINITION_SHAPE ( 'NONE', 'NONE',  #190 ) ;
#150 = APPROVAL_STATUS ( 'not_yet_approved' ) ;
#151 = DATE_AND_TIME ( #28, #249 ) ;
#152 =( GEOMETRIC_REPRESENTATION_CONTEXT ( 3 ) GLOBAL_UNCERTAINTY_ASSIGNED_CONTEXT ( ( #70 ) ) GLOBAL_UNIT_ASSIGNED_CONTEXT ( ( #55, #160, #98 ) ) REPRESENTATION_CONTEXT ( 'NONE', 'WORKASPACE' ) );
#153 = PERSON_AND_ORGANIZATION ( #242, #44 ) ;
#154 = DATE_TIME_ROLE ( 'classification_date' ) ;
#155 = DIRECTION ( 'NONE',  ( 1.000000000000000000, 0.000000000000000000, 0.000000000000000000 ) ) ;
#156 = CARTESIAN_POINT ( 'NONE',  ( 0.000000000000000000, 0.000000000000000000, 203.0000000000000000 ) ) ;
#157 = DIRECTION ( 'NONE',  ( -1.000000000000000000, 0.000000000000000000, 0.000000000000000000 ) ) ;
#158 = ORIENTED_EDGE ( 'NONE', *, *, #148, .T. ) ;
#159 = LOCAL_TIME ( 19, 51, 46.00000000000000000, #219 ) ;
#160 =( NAMED_UNIT ( * ) PLANE_ANGLE_UNIT ( ) SI_UNIT ( $, .RADIAN. ) );
#161 = DIRECTION ( 'NONE',  ( -0.000000000000000000, -0.000000000000000000, -1.000000000000000000 ) ) ;
#162 = VERTEX_POINT ( 'NONE', #201 ) ;
#163 = CARTESIAN_POINT ( 'NONE',  ( -4.000000000000000000, 0.000000000000000000, 3.000000000000000000 ) ) ;
#164 = EDGE_LOOP ( 'NONE', ( #81, #60 ) ) ;
#165 = CIRCLE ( 'NONE', #131, 2.000000000000000000 ) ;
#166 = VERTEX_POINT ( 'NONE', #37 ) ;
#167 = LOCAL_TIME ( 19, 51, 46.00000000000000000, #105 ) ;
#168 = PERSON_AND_ORGANIZATION_ROLE ( 'creator' ) ;
#169 = DIRECTION ( 'NONE',  ( 0.000000000000000000, 0.000000000000000000, 1.000000000000000000 ) ) ;
#170 = FACE_OUTER_BOUND ( 'NONE', #164, .T. ) ;
#171 = AXIS2_PLACEMENT_3D ( 'NONE', #21, #239, #178 ) ;
#172 = DIRECTION ( 'NONE',  ( 0.000000000000000000, 0.000000000000000000, 1.000000000000000000 ) ) ;
#173 = DIRECTION ( 'NONE',  ( -0.000000000000000000, -0.000000000000000000, -1.000000000000000000 ) ) ;
#174 = CARTESIAN_POINT ( 'NONE',  ( 0.000000000000000000, 0.000000000000000000, 3.000000000000000000 ) ) ;
#175 = APPROVAL ( #207, 'NEURÈENÝ' ) ;
#176 = PERSON_AND_ORGANIZATION ( #242, #44 ) ;
#177 = APPROVAL_PERSON_ORGANIZATION ( #244, #175, #220 ) ;
#178 = DIRECTION ( 'NONE',  ( 1.000000000000000000, 0.000000000000000000, 0.000000000000000000 ) ) ;
#179 = VERTEX_POINT ( 'NONE', #163 ) ;
#180 = APPLICATION_PROTOCOL_DEFINITION ( 'international standard', 'config_control_design', 1994, #78 ) ;
#181 = ORIENTED_EDGE ( 'NONE', *, *, #230, .T. ) ;
#182 = DIRECTION ( 'NONE',  ( 1.000000000000000000, 0.000000000000000000, 0.000000000000000000 ) ) ;
#183 = AXIS2_PLACEMENT_3D ( 'NONE', #210, #173, #252 ) ;
#184 = ORIENTED_EDGE ( 'NONE', *, *, #233, .T. ) ;
#185 = CC_DESIGN_PERSON_AND_ORGANIZATION_ASSIGNMENT ( #208, #27, ( #65 ) ) ;
#186 = COORDINATED_UNIVERSAL_TIME_OFFSET ( 1, 0, .AHEAD. ) ;
#187 = APPROVAL_DATE_TIME ( #26, #6 ) ;
#188 = DATE_AND_TIME ( #66, #15 ) ;
#189 = PERSON_AND_ORGANIZATION ( #242, #44 ) ;
#190 = PRODUCT_DEFINITION ( 'NEZNÁMÝ', '', #31, #29 ) ;
#191 = EDGE_CURVE ( 'NONE', #179, #45, #40, .T. ) ;
#192 = CARTESIAN_POINT ( 'NONE',  ( 0.000000000000000000, 0.000000000000000000, 3.000000000000000000 ) ) ;
#193 = CARTESIAN_POINT ( 'NONE',  ( -4.000000000000000000, 0.000000000000000000, 0.000000000000000000 ) ) ;
#194 = DIRECTION ( 'NONE',  ( -0.000000000000000000, -0.000000000000000000, -1.000000000000000000 ) ) ;
#195 = CARTESIAN_POINT ( 'NONE',  ( 4.000000000000000000, 4.898587196589412829E-16, 3.000000000000000000 ) ) ;
#196 = EDGE_CURVE ( 'NONE', #45, #122, #85, .T. ) ;
#197 = APPROVAL_STATUS ( 'not_yet_approved' ) ;
#198 = AXIS2_PLACEMENT_3D ( 'NONE', #76, #74, #136 ) ;
#199 = LINE ( 'NONE', #92, #104 ) ;
#200 = ORIENTED_EDGE ( 'NONE', *, *, #25, .T. ) ;
#201 = CARTESIAN_POINT ( 'NONE',  ( -2.000000000000000000, 0.000000000000000000, 3.000000000000000000 ) ) ;
#202 = EDGE_LOOP ( 'NONE', ( #97, #118 ) ) ;
#203 = ORIENTED_EDGE ( 'NONE', *, *, #148, .F. ) ;
#204 = VECTOR ( 'NONE', #2, 1000.000000000000000 ) ;
#205 = APPROVAL_ROLE ( '' ) ;
#206 = CC_DESIGN_SECURITY_CLASSIFICATION ( #65, ( #31 ) ) ;
#207 = APPROVAL_STATUS ( 'not_yet_approved' ) ;
#208 = PERSON_AND_ORGANIZATION ( #242, #44 ) ;
#209 = DIRECTION ( 'NONE',  ( 1.000000000000000000, 0.000000000000000000, -0.000000000000000000 ) ) ;
#210 = CARTESIAN_POINT ( 'NONE',  ( 0.000000000000000000, 0.000000000000000000, 203.0000000000000000 ) ) ;
#211 = DIRECTION ( 'NONE',  ( 1.000000000000000000, 0.000000000000000000, -0.000000000000000000 ) ) ;
#212 = AXIS2_PLACEMENT_3D ( 'NONE', #96, #4, #141 ) ;
#213 = CYLINDRICAL_SURFACE ( 'NONE', #106, 4.000000000000000000 ) ;
#214 = EDGE_CURVE ( 'NONE', #216, #166, #232, .T. ) ;
#215 = CARTESIAN_POINT ( 'NONE',  ( -2.000000000000000000, 0.000000000000000000, 203.0000000000000000 ) ) ;
#216 = VERTEX_POINT ( 'NONE', #234 ) ;
#217 = ORIENTED_EDGE ( 'NONE', *, *, #196, .T. ) ;
#218 = EDGE_LOOP ( 'NONE', ( #77, #241, #200, #203 ) ) ;
#219 = COORDINATED_UNIVERSAL_TIME_OFFSET ( 1, 0, .AHEAD. ) ;
#220 = APPROVAL_ROLE ( '' ) ;
#221 = PRODUCT ( 'b3b3', 'b3b3', '', ( #58 ) ) ;
#222 = PRODUCT_RELATED_PRODUCT_CATEGORY ( 'detail', '', ( #221 ) ) ;
#223 = EDGE_CURVE ( 'NONE', #216, #22, #119, .T. ) ;
#224 = DIRECTION ( 'NONE',  ( 1.000000000000000000, 0.000000000000000000, 0.000000000000000000 ) ) ;
#225 = CC_DESIGN_PERSON_AND_ORGANIZATION_ASSIGNMENT ( #189, #64, ( #31 ) ) ;
#226 = CARTESIAN_POINT ( 'NONE',  ( 0.000000000000000000, 0.000000000000000000, 203.0000000000000000 ) ) ;
#227 = CLOSED_SHELL ( 'NONE', ( #42, #116, #53, #1, #18, #147, #95 ) ) ;
#228 = EDGE_CURVE ( 'NONE', #122, #45, #24, .T. ) ;
#229 = FACE_OUTER_BOUND ( 'NONE', #120, .T. ) ;
#230 = EDGE_CURVE ( 'NONE', #162, #22, #20, .T. ) ;
#231 = DIRECTION ( 'NONE',  ( -1.000000000000000000, 0.000000000000000000, 0.000000000000000000 ) ) ;
#232 = CIRCLE ( 'NONE', #198, 2.000000000000000000 ) ;
#233 = EDGE_CURVE ( 'NONE', #100, #122, #199, .T. ) ;
#234 = CARTESIAN_POINT ( 'NONE',  ( 2.000000000000000000, 2.449293598294706414E-16, 203.0000000000000000 ) ) ;
#235 = CARTESIAN_POINT ( 'NONE',  ( -4.000000000000000000, 0.000000000000000000, 3.000000000000000000 ) ) ;
#236 = EDGE_LOOP ( 'NONE', ( #144, #23, #138, #217 ) ) ;
#237 = CARTESIAN_POINT ( 'NONE',  ( 0.000000000000000000, 0.000000000000000000, 0.000000000000000000 ) ) ;
#238 = AXIS2_PLACEMENT_3D ( 'NONE', #79, #143, #182 ) ;
#239 = DIRECTION ( 'NONE',  ( 0.000000000000000000, 0.000000000000000000, 1.000000000000000000 ) ) ;
#240 = ORIENTED_EDGE ( 'NONE', *, *, #25, .F. ) ;
#241 = ORIENTED_EDGE ( 'NONE', *, *, #223, .T. ) ;
#242 = PERSON ( 'NEURÈENÝ', 'NEURÈENÝ', 'NEURÈENÝ', ('NEURÈENÝ'), ('NEURÈENÝ'), ('NEURÈENÝ') ) ;
#243 = AXIS2_PLACEMENT_3D ( 'NONE', #250, #133, #209 ) ;
#244 = PERSON_AND_ORGANIZATION ( #242, #44 ) ;
#245 = CC_DESIGN_APPROVAL ( #6, ( #190 ) ) ;
#246 = COORDINATED_UNIVERSAL_TIME_OFFSET ( 1, 0, .AHEAD. ) ;
#247 = CYLINDRICAL_SURFACE ( 'NONE', #51, 2.000000000000000000 ) ;
#248 = CARTESIAN_POINT ( 'NONE',  ( 4.000000000000000000, 4.898587196589412829E-16, 0.000000000000000000 ) ) ;
#249 = LOCAL_TIME ( 19, 51, 46.00000000000000000, #246 ) ;
#250 = CARTESIAN_POINT ( 'NONE',  ( 0.000000000000000000, 0.000000000000000000, 0.000000000000000000 ) ) ;
#251 = AXIS2_PLACEMENT_3D ( 'NONE', #174, #169, #88 ) ;
#252 = DIRECTION ( 'NONE',  ( -1.000000000000000000, 0.000000000000000000, 0.000000000000000000 ) ) ;
#253 = CC_DESIGN_PERSON_AND_ORGANIZATION_ASSIGNMENT ( #52, #115, ( #221 ) ) ;
#254 = DIRECTION ( 'NONE',  ( 0.000000000000000000, 0.000000000000000000, 1.000000000000000000 ) ) ;
#255 = AXIS2_PLACEMENT_3D ( 'NONE', #237, #137, #121 ) ;
ENDSEC;
END-ISO-10303-21;
