ISO-10303-21;
HEADER;
FILE_DESCRIPTION (( 'STEP AP203' ),
    '1' );
FILE_NAME ('014a.STEP',
    '2022-07-07T17:27:42',
    ( '' ),
    ( '' ),
    'SwSTEP 2.0',
    'SolidWorks 2019',
    '' );
FILE_SCHEMA (( 'CONFIG_CONTROL_DESIGN' ));
ENDSEC;

DATA;
#1 = COORDINATED_UNIVERSAL_TIME_OFFSET ( 1, 0, .AHEAD. ) ;
#2 = CARTESIAN_POINT ( 'NONE',  ( 0.000000000000000000, 0.000000000000000000, 130.0000000000000000 ) ) ;
#3 = AXIS2_PLACEMENT_3D ( 'NONE', #240, #183, #138 ) ;
#4 = DIRECTION ( 'NONE',  ( -0.000000000000000000, -0.000000000000000000, -1.000000000000000000 ) ) ;
#5 = DIRECTION ( 'NONE',  ( -0.000000000000000000, -0.000000000000000000, -1.000000000000000000 ) ) ;
#6 = CARTESIAN_POINT ( 'NONE',  ( 0.000000000000000000, 0.000000000000000000, 5.000000000000000000 ) ) ;
#7 = CC_DESIGN_PERSON_AND_ORGANIZATION_ASSIGNMENT ( #173, #37, ( #198 ) ) ;
#8 = AXIS2_PLACEMENT_3D ( 'NONE', #172, #154, #241 ) ;
#9 = PERSON ( 'NEURÈENÝ', 'NEURÈENÝ', 'NEURÈENÝ', ('NEURÈENÝ'), ('NEURÈENÝ'), ('NEURÈENÝ') ) ;
#10 = EDGE_CURVE ( 'NONE', #229, #69, #184, .T. ) ;
#11 = EDGE_LOOP ( 'NONE', ( #166, #105, #143, #246 ) ) ;
#12 = AXIS2_PLACEMENT_3D ( 'NONE', #200, #205, #100 ) ;
#13 = ORIENTED_EDGE ( 'NONE', *, *, #47, .T. ) ;
#14 = ORIENTED_EDGE ( 'NONE', *, *, #74, .F. ) ;
#15 = PERSON_AND_ORGANIZATION ( #9, #169 ) ;
#16 = APPROVAL ( #203, 'NEURÈENÝ' ) ;
#17 = PLANE ( 'NONE',  #18 ) ;
#18 = AXIS2_PLACEMENT_3D ( 'NONE', #145, #232, #106 ) ;
#19 = LOCAL_TIME ( 19, 27, 42.00000000000000000, #76 ) ;
#20 = CARTESIAN_POINT ( 'NONE',  ( 0.000000000000000000, 0.000000000000000000, 5.000000000000000000 ) ) ;
#21 = CALENDAR_DATE ( 2022, 7, 7 ) ;
#22 = CC_DESIGN_APPROVAL ( #81, ( #239 ) ) ;
#23 = DATE_TIME_ROLE ( 'creation_date' ) ;
#24 = DIRECTION ( 'NONE',  ( -1.000000000000000000, 0.000000000000000000, 0.000000000000000000 ) ) ;
#25 = CARTESIAN_POINT ( 'NONE',  ( 0.000000000000000000, 0.000000000000000000, 5.000000000000000000 ) ) ;
#26 = DIRECTION ( 'NONE',  ( -0.000000000000000000, -0.000000000000000000, -1.000000000000000000 ) ) ;
#27 = CARTESIAN_POINT ( 'NONE',  ( -5.000000000000000000, 0.000000000000000000, 130.0000000000000000 ) ) ;
#28 = LINE ( 'NONE', #42, #193 ) ;
#29 = ADVANCED_FACE ( 'NONE', ( #67 ), #162, .T. ) ;
#30 = CIRCLE ( 'NONE', #171, 8.000000000000000000 ) ;
#31 = AXIS2_PLACEMENT_3D ( 'NONE', #20, #201, #137 ) ;
#32 = VERTEX_POINT ( 'NONE', #87 ) ;
#33 = ORIENTED_EDGE ( 'NONE', *, *, #54, .F. ) ;
#34 = EDGE_LOOP ( 'NONE', ( #49, #146, #88, #251 ) ) ;
#35 = EDGE_LOOP ( 'NONE', ( #13, #211 ) ) ;
#36 = APPROVAL_PERSON_ORGANIZATION ( #165, #109, #57 ) ;
#37 = PERSON_AND_ORGANIZATION_ROLE ( 'classification_officer' ) ;
#38 = PERSON_AND_ORGANIZATION_ROLE ( 'creator' ) ;
#39 = APPLICATION_PROTOCOL_DEFINITION ( 'international standard', 'config_control_design', 1994, #127 ) ;
#40 = CARTESIAN_POINT ( 'NONE',  ( 5.000000000000000000, 6.123233995736766282E-16, 130.0000000000000000 ) ) ;
#41 = APPROVAL_STATUS ( 'not_yet_approved' ) ;
#42 = CARTESIAN_POINT ( 'NONE',  ( 5.000000000000000000, 6.123233995736766282E-16, 130.0000000000000000 ) ) ;
#43 = DIRECTION ( 'NONE',  ( 0.000000000000000000, 0.000000000000000000, 1.000000000000000000 ) ) ;
#44 = ADVANCED_FACE ( 'NONE', ( #163 ), #17, .F. ) ;
#45 = CYLINDRICAL_SURFACE ( 'NONE', #150, 8.000000000000000000 ) ;
#46 = DIRECTION ( 'NONE',  ( 1.000000000000000000, 0.000000000000000000, -0.000000000000000000 ) ) ;
#47 = EDGE_CURVE ( 'NONE', #249, #32, #30, .T. ) ;
#48 = ORIENTED_EDGE ( 'NONE', *, *, #104, .T. ) ;
#49 = ORIENTED_EDGE ( 'NONE', *, *, #116, .F. ) ;
#50 = CARTESIAN_POINT ( 'NONE',  ( 0.000000000000000000, 0.000000000000000000, 5.000000000000000000 ) ) ;
#51 = CC_DESIGN_PERSON_AND_ORGANIZATION_ASSIGNMENT ( #15, #107, ( #239 ) ) ;
#52 = VECTOR ( 'NONE', #5, 1000.000000000000000 ) ;
#53 = ORIENTED_EDGE ( 'NONE', *, *, #90, .F. ) ;
#54 = EDGE_CURVE ( 'NONE', #129, #230, #167, .T. ) ;
#55 = APPROVAL_DATE_TIME ( #114, #16 ) ;
#56 = ADVANCED_FACE ( 'NONE', ( #142 ), #45, .T. ) ;
#57 = APPROVAL_ROLE ( '' ) ;
#58 = AXIS2_PLACEMENT_3D ( 'NONE', #128, #144, #210 ) ;
#59 = DATE_AND_TIME ( #148, #92 ) ;
#60 = APPROVAL_PERSON_ORGANIZATION ( #119, #16, #194 ) ;
#61 = PERSON_AND_ORGANIZATION ( #9, #169 ) ;
#62 = DIRECTION ( 'NONE',  ( -1.000000000000000000, 0.000000000000000000, 0.000000000000000000 ) ) ;
#63 = MECHANICAL_CONTEXT ( 'NONE', #157, 'mechanical' ) ;
#64 = DIRECTION ( 'NONE',  ( -1.000000000000000000, 0.000000000000000000, 0.000000000000000000 ) ) ;
#65 = CARTESIAN_POINT ( 'NONE',  ( -8.000000000000000000, 0.000000000000000000, 5.000000000000000000 ) ) ;
#66 = CARTESIAN_POINT ( 'NONE',  ( 0.000000000000000000, 0.000000000000000000, 130.0000000000000000 ) ) ;
#67 = FACE_OUTER_BOUND ( 'NONE', #86, .T. ) ;
#68 = CC_DESIGN_SECURITY_CLASSIFICATION ( #198, ( #239 ) ) ;
#69 = VERTEX_POINT ( 'NONE', #118 ) ;
#70 = DIRECTION ( 'NONE',  ( 0.000000000000000000, 0.000000000000000000, 1.000000000000000000 ) ) ;
#71 = ORIENTED_EDGE ( 'NONE', *, *, #10, .F. ) ;
#72 = AXIS2_PLACEMENT_3D ( 'NONE', #85, #70, #245 ) ;
#73 = VERTEX_POINT ( 'NONE', #123 ) ;
#74 = EDGE_CURVE ( 'NONE', #69, #229, #77, .T. ) ;
#75 = DATE_AND_TIME ( #21, #91 ) ;
#76 = COORDINATED_UNIVERSAL_TIME_OFFSET ( 1, 0, .AHEAD. ) ;
#77 = CIRCLE ( 'NONE', #12, 8.000000000000000000 ) ;
#78 = DIRECTION ( 'NONE',  ( 1.000000000000000000, 0.000000000000000000, 0.000000000000000000 ) ) ;
#79 = CC_DESIGN_APPROVAL ( #109, ( #198 ) ) ;
#80 = DIRECTION ( 'NONE',  ( -0.000000000000000000, -0.000000000000000000, -1.000000000000000000 ) ) ;
#81 = APPROVAL ( #41, 'NEURÈENÝ' ) ;
#82 = LINE ( 'NONE', #27, #52 ) ;
#83 = CARTESIAN_POINT ( 'NONE',  ( 0.000000000000000000, 0.000000000000000000, 130.0000000000000000 ) ) ;
#84 = ADVANCED_FACE ( 'NONE', ( #96 ), #180, .T. ) ;
#85 = CARTESIAN_POINT ( 'NONE',  ( 0.000000000000000000, 0.000000000000000000, 0.000000000000000000 ) ) ;
#86 = EDGE_LOOP ( 'NONE', ( #187, #48, #161, #250 ) ) ;
#87 = CARTESIAN_POINT ( 'NONE',  ( 8.000000000000000000, 9.797174393178825657E-16, 5.000000000000000000 ) ) ;
#88 = ORIENTED_EDGE ( 'NONE', *, *, #10, .T. ) ;
#89 = DATE_AND_TIME ( #190, #181 ) ;
#90 = EDGE_CURVE ( 'NONE', #103, #73, #228, .T. ) ;
#91 = LOCAL_TIME ( 19, 27, 42.00000000000000000, #255 ) ;
#92 = LOCAL_TIME ( 19, 27, 42.00000000000000000, #113 ) ;
#93 = CC_DESIGN_PERSON_AND_ORGANIZATION_ASSIGNMENT ( #218, #38, ( #189 ) ) ;
#94 =( NAMED_UNIT ( * ) PLANE_ANGLE_UNIT ( ) SI_UNIT ( $, .RADIAN. ) );
#95 = APPROVAL_ROLE ( '' ) ;
#96 = FACE_OUTER_BOUND ( 'NONE', #34, .T. ) ;
#97 = DIRECTION ( 'NONE',  ( 1.000000000000000000, 0.000000000000000000, 0.000000000000000000 ) ) ;
#98 = VECTOR ( 'NONE', #206, 1000.000000000000000 ) ;
#99 = CARTESIAN_POINT ( 'NONE',  ( 0.000000000000000000, 0.000000000000000000, 5.000000000000000000 ) ) ;
#100 = DIRECTION ( 'NONE',  ( 1.000000000000000000, 0.000000000000000000, 0.000000000000000000 ) ) ;
#101 = ADVANCED_FACE ( 'NONE', ( #221 ), #140, .T. ) ;
#102 = CIRCLE ( 'NONE', #160, 8.000000000000000000 ) ;
#103 = VERTEX_POINT ( 'NONE', #139 ) ;
#104 = EDGE_CURVE ( 'NONE', #230, #73, #28, .T. ) ;
#105 = ORIENTED_EDGE ( 'NONE', *, *, #47, .F. ) ;
#106 = DIRECTION ( 'NONE',  ( 1.000000000000000000, 0.000000000000000000, -0.000000000000000000 ) ) ;
#107 = PERSON_AND_ORGANIZATION_ROLE ( 'creator' ) ;
#108 = ORIENTED_EDGE ( 'NONE', *, *, #253, .F. ) ;
#109 = APPROVAL ( #149, 'NEURÈENÝ' ) ;
#110 = AXIS2_PLACEMENT_3D ( 'NONE', #202, #153, #62 ) ;
#111 = PERSON_AND_ORGANIZATION_ROLE ( 'design_owner' ) ;
#112 = EDGE_CURVE ( 'NONE', #249, #69, #227, .T. ) ;
#113 = COORDINATED_UNIVERSAL_TIME_OFFSET ( 1, 0, .AHEAD. ) ;
#114 = DATE_AND_TIME ( #237, #122 ) ;
#115 = CARTESIAN_POINT ( 'NONE',  ( -5.000000000000000000, 0.000000000000000000, 130.0000000000000000 ) ) ;
#116 = EDGE_CURVE ( 'NONE', #32, #249, #102, .T. ) ;
#117 = APPROVAL_DATE_TIME ( #238, #81 ) ;
#118 = CARTESIAN_POINT ( 'NONE',  ( -8.000000000000000000, 0.000000000000000000, 0.000000000000000000 ) ) ;
#119 = PERSON_AND_ORGANIZATION ( #9, #169 ) ;
#120 = AXIS2_PLACEMENT_3D ( 'NONE', #2, #156, #78 ) ;
#121 = DIRECTION ( 'NONE',  ( 0.000000000000000000, 0.000000000000000000, 1.000000000000000000 ) ) ;
#122 = LOCAL_TIME ( 19, 27, 42.00000000000000000, #220 ) ;
#123 = CARTESIAN_POINT ( 'NONE',  ( 5.000000000000000000, 6.123233995736766282E-16, 5.000000000000000000 ) ) ;
#124 = LINE ( 'NONE', #204, #98 ) ;
#125 = APPROVAL_PERSON_ORGANIZATION ( #61, #81, #95 ) ;
#126 = EDGE_LOOP ( 'NONE', ( #213, #33, #188, #147 ) ) ;
#127 = APPLICATION_CONTEXT ( 'configuration controlled 3d designs of mechanical parts and assemblies' ) ;
#128 = CARTESIAN_POINT ( 'NONE',  ( 0.000000000000000000, 0.000000000000000000, 130.0000000000000000 ) ) ;
#129 = VERTEX_POINT ( 'NONE', #115 ) ;
#130 = EDGE_LOOP ( 'NONE', ( #14, #71 ) ) ;
#131 = SHAPE_DEFINITION_REPRESENTATION ( #191, #207 ) ;
#132 =( GEOMETRIC_REPRESENTATION_CONTEXT ( 3 ) GLOBAL_UNCERTAINTY_ASSIGNED_CONTEXT ( ( #222 ) ) GLOBAL_UNIT_ASSIGNED_CONTEXT ( ( #199, #94, #197 ) ) REPRESENTATION_CONTEXT ( 'NONE', 'WORKASPACE' ) );
#133 = CARTESIAN_POINT ( 'NONE',  ( -8.000000000000000000, 0.000000000000000000, 5.000000000000000000 ) ) ;
#134 = MANIFOLD_SOLID_BREP ( 'Pøidat vysunutím3', #192 ) ;
#135 = APPLICATION_PROTOCOL_DEFINITION ( 'international standard', 'config_control_design', 1994, #157 ) ;
#136 = ADVANCED_FACE ( 'NONE', ( #242 ), #224, .T. ) ;
#137 = DIRECTION ( 'NONE',  ( 1.000000000000000000, 0.000000000000000000, -0.000000000000000000 ) ) ;
#138 = DIRECTION ( 'NONE',  ( 1.000000000000000000, 0.000000000000000000, 0.000000000000000000 ) ) ;
#139 = CARTESIAN_POINT ( 'NONE',  ( -5.000000000000000000, 0.000000000000000000, 5.000000000000000000 ) ) ;
#140 = CYLINDRICAL_SURFACE ( 'NONE', #185, 5.000000000000000000 ) ;
#141 = EDGE_CURVE ( 'NONE', #230, #129, #215, .T. ) ;
#142 = FACE_OUTER_BOUND ( 'NONE', #11, .T. ) ;
#143 = ORIENTED_EDGE ( 'NONE', *, *, #112, .T. ) ;
#144 = DIRECTION ( 'NONE',  ( -0.000000000000000000, -0.000000000000000000, -1.000000000000000000 ) ) ;
#145 = CARTESIAN_POINT ( 'NONE',  ( 0.000000000000000000, 0.000000000000000000, 0.000000000000000000 ) ) ;
#146 = ORIENTED_EDGE ( 'NONE', *, *, #158, .T. ) ;
#147 = ORIENTED_EDGE ( 'NONE', *, *, #90, .T. ) ;
#148 = CALENDAR_DATE ( 2022, 7, 7 ) ;
#149 = APPROVAL_STATUS ( 'not_yet_approved' ) ;
#150 = AXIS2_PLACEMENT_3D ( 'NONE', #99, #80, #24 ) ;
#151 = CALENDAR_DATE ( 2022, 7, 7 ) ;
#152 = AXIS2_PLACEMENT_3D ( 'NONE', #25, #254, #175 ) ;
#153 = DIRECTION ( 'NONE',  ( -0.000000000000000000, -0.000000000000000000, -1.000000000000000000 ) ) ;
#154 = DIRECTION ( 'NONE',  ( 0.000000000000000000, 0.000000000000000000, 1.000000000000000000 ) ) ;
#155 = DIRECTION ( 'NONE',  ( -0.000000000000000000, -0.000000000000000000, -1.000000000000000000 ) ) ;
#156 = DIRECTION ( 'NONE',  ( 0.000000000000000000, 0.000000000000000000, 1.000000000000000000 ) ) ;
#157 = APPLICATION_CONTEXT ( 'configuration controlled 3d designs of mechanical parts and assemblies' ) ;
#158 = EDGE_CURVE ( 'NONE', #32, #229, #124, .T. ) ;
#159 = DIRECTION ( 'NONE',  ( 0.000000000000000000, 0.000000000000000000, 1.000000000000000000 ) ) ;
#160 = AXIS2_PLACEMENT_3D ( 'NONE', #6, #225, #97 ) ;
#161 = ORIENTED_EDGE ( 'NONE', *, *, #253, .T. ) ;
#162 = CYLINDRICAL_SURFACE ( 'NONE', #58, 5.000000000000000000 ) ;
#163 = FACE_OUTER_BOUND ( 'NONE', #130, .T. ) ;
#164 = EDGE_LOOP ( 'NONE', ( #209, #233 ) ) ;
#165 = PERSON_AND_ORGANIZATION ( #9, #169 ) ;
#166 = ORIENTED_EDGE ( 'NONE', *, *, #158, .F. ) ;
#167 = CIRCLE ( 'NONE', #120, 5.000000000000000000 ) ;
#168 = PERSON_AND_ORGANIZATION_ROLE ( 'design_supplier' ) ;
#169 = ORGANIZATION ( 'NEURÈENÝ', 'NEURÈENÝ', '' ) ;
#170 = CC_DESIGN_DATE_AND_TIME_ASSIGNMENT ( #75, #23, ( #189 ) ) ;
#171 = AXIS2_PLACEMENT_3D ( 'NONE', #50, #159, #178 ) ;
#172 = CARTESIAN_POINT ( 'NONE',  ( 0.000000000000000000, 0.000000000000000000, 0.000000000000000000 ) ) ;
#173 = PERSON_AND_ORGANIZATION ( #9, #169 ) ;
#174 = PRODUCT_RELATED_PRODUCT_CATEGORY ( 'detail', '', ( #248 ) ) ;
#175 = DIRECTION ( 'NONE',  ( 1.000000000000000000, 0.000000000000000000, 0.000000000000000000 ) ) ;
#176 = DATE_TIME_ROLE ( 'classification_date' ) ;
#177 = PLANE ( 'NONE',  #31 ) ;
#178 = DIRECTION ( 'NONE',  ( 1.000000000000000000, 0.000000000000000000, 0.000000000000000000 ) ) ;
#179 = PERSON_AND_ORGANIZATION ( #9, #169 ) ;
#180 = CYLINDRICAL_SURFACE ( 'NONE', #110, 8.000000000000000000 ) ;
#181 = LOCAL_TIME ( 19, 27, 42.00000000000000000, #1 ) ;
#182 = DIRECTION ( 'NONE',  ( 1.000000000000000000, 0.000000000000000000, 0.000000000000000000 ) ) ;
#183 = DIRECTION ( 'NONE',  ( 0.000000000000000000, 0.000000000000000000, 1.000000000000000000 ) ) ;
#184 = CIRCLE ( 'NONE', #72, 8.000000000000000000 ) ;
#185 = AXIS2_PLACEMENT_3D ( 'NONE', #66, #4, #64 ) ;
#186 = EDGE_LOOP ( 'NONE', ( #53, #108 ) ) ;
#187 = ORIENTED_EDGE ( 'NONE', *, *, #141, .F. ) ;
#188 = ORIENTED_EDGE ( 'NONE', *, *, #231, .T. ) ;
#189 = PRODUCT_DEFINITION ( 'NEZNÁMÝ', '', #239, #196 ) ;
#190 = CALENDAR_DATE ( 2022, 7, 7 ) ;
#191 = PRODUCT_DEFINITION_SHAPE ( 'NONE', 'NONE',  #189 ) ;
#192 = CLOSED_SHELL ( 'NONE', ( #29, #84, #56, #236, #44, #101, #136 ) ) ;
#193 = VECTOR ( 'NONE', #155, 1000.000000000000000 ) ;
#194 = APPROVAL_ROLE ( '' ) ;
#195 = APPROVAL_DATE_TIME ( #89, #109 ) ;
#196 = DESIGN_CONTEXT ( 'detailed design', #127, 'design' ) ;
#197 =( NAMED_UNIT ( * ) SI_UNIT ( $, .STERADIAN. ) SOLID_ANGLE_UNIT ( ) );
#198 = SECURITY_CLASSIFICATION ( '', '', #212 ) ;
#199 =( LENGTH_UNIT ( ) NAMED_UNIT ( * ) SI_UNIT ( .MILLI., .METRE. ) );
#200 = CARTESIAN_POINT ( 'NONE',  ( 0.000000000000000000, 0.000000000000000000, 0.000000000000000000 ) ) ;
#201 = DIRECTION ( 'NONE',  ( 0.000000000000000000, 0.000000000000000000, 1.000000000000000000 ) ) ;
#202 = CARTESIAN_POINT ( 'NONE',  ( 0.000000000000000000, 0.000000000000000000, 5.000000000000000000 ) ) ;
#203 = APPROVAL_STATUS ( 'not_yet_approved' ) ;
#204 = CARTESIAN_POINT ( 'NONE',  ( 8.000000000000000000, 9.797174393178825657E-16, 5.000000000000000000 ) ) ;
#205 = DIRECTION ( 'NONE',  ( 0.000000000000000000, 0.000000000000000000, 1.000000000000000000 ) ) ;
#206 = DIRECTION ( 'NONE',  ( -0.000000000000000000, -0.000000000000000000, -1.000000000000000000 ) ) ;
#207 = ADVANCED_BREP_SHAPE_REPRESENTATION ( '014a', ( #134, #8 ), #132 ) ;
#208 = CC_DESIGN_APPROVAL ( #16, ( #189 ) ) ;
#209 = ORIENTED_EDGE ( 'NONE', *, *, #54, .T. ) ;
#210 = DIRECTION ( 'NONE',  ( -1.000000000000000000, 0.000000000000000000, 0.000000000000000000 ) ) ;
#211 = ORIENTED_EDGE ( 'NONE', *, *, #116, .T. ) ;
#212 = SECURITY_CLASSIFICATION_LEVEL ( 'unclassified' ) ;
#213 = ORIENTED_EDGE ( 'NONE', *, *, #104, .F. ) ;
#214 = CC_DESIGN_DATE_AND_TIME_ASSIGNMENT ( #59, #176, ( #198 ) ) ;
#215 = CIRCLE ( 'NONE', #234, 5.000000000000000000 ) ;
#216 = FACE_OUTER_BOUND ( 'NONE', #35, .T. ) ;
#217 = PERSON_AND_ORGANIZATION ( #9, #169 ) ;
#218 = PERSON_AND_ORGANIZATION ( #9, #169 ) ;
#219 = CARTESIAN_POINT ( 'NONE',  ( 8.000000000000000000, 9.797174393178825657E-16, 0.000000000000000000 ) ) ;
#220 = COORDINATED_UNIVERSAL_TIME_OFFSET ( 1, 0, .AHEAD. ) ;
#221 = FACE_OUTER_BOUND ( 'NONE', #126, .T. ) ;
#222 = UNCERTAINTY_MEASURE_WITH_UNIT (LENGTH_MEASURE( 1.000000000000000082E-05 ), #199, 'distance_accuracy_value', 'NONE');
#223 = CC_DESIGN_PERSON_AND_ORGANIZATION_ASSIGNMENT ( #179, #111, ( #248 ) ) ;
#224 = PLANE ( 'NONE',  #252 ) ;
#225 = DIRECTION ( 'NONE',  ( 0.000000000000000000, 0.000000000000000000, 1.000000000000000000 ) ) ;
#226 = CC_DESIGN_PERSON_AND_ORGANIZATION_ASSIGNMENT ( #217, #168, ( #239 ) ) ;
#227 = LINE ( 'NONE', #65, #235 ) ;
#228 = CIRCLE ( 'NONE', #3, 5.000000000000000000 ) ;
#229 = VERTEX_POINT ( 'NONE', #219 ) ;
#230 = VERTEX_POINT ( 'NONE', #40 ) ;
#231 = EDGE_CURVE ( 'NONE', #129, #103, #82, .T. ) ;
#232 = DIRECTION ( 'NONE',  ( 0.000000000000000000, 0.000000000000000000, 1.000000000000000000 ) ) ;
#233 = ORIENTED_EDGE ( 'NONE', *, *, #141, .T. ) ;
#234 = AXIS2_PLACEMENT_3D ( 'NONE', #244, #121, #182 ) ;
#235 = VECTOR ( 'NONE', #26, 1000.000000000000000 ) ;
#236 = ADVANCED_FACE ( 'NONE', ( #243, #216 ), #177, .T. ) ;
#237 = CALENDAR_DATE ( 2022, 7, 7 ) ;
#238 = DATE_AND_TIME ( #151, #19 ) ;
#239 = PRODUCT_DEFINITION_FORMATION_WITH_SPECIFIED_SOURCE ( 'LIBOVOLNÝ', '', #248, .NOT_KNOWN. ) ;
#240 = CARTESIAN_POINT ( 'NONE',  ( 0.000000000000000000, 0.000000000000000000, 5.000000000000000000 ) ) ;
#241 = DIRECTION ( 'NONE',  ( 1.000000000000000000, 0.000000000000000000, 0.000000000000000000 ) ) ;
#242 = FACE_OUTER_BOUND ( 'NONE', #164, .T. ) ;
#243 = FACE_BOUND ( 'NONE', #186, .T. ) ;
#244 = CARTESIAN_POINT ( 'NONE',  ( 0.000000000000000000, 0.000000000000000000, 130.0000000000000000 ) ) ;
#245 = DIRECTION ( 'NONE',  ( 1.000000000000000000, 0.000000000000000000, 0.000000000000000000 ) ) ;
#246 = ORIENTED_EDGE ( 'NONE', *, *, #74, .T. ) ;
#247 = CIRCLE ( 'NONE', #152, 5.000000000000000000 ) ;
#248 = PRODUCT ( '014a', '014a', '', ( #63 ) ) ;
#249 = VERTEX_POINT ( 'NONE', #133 ) ;
#250 = ORIENTED_EDGE ( 'NONE', *, *, #231, .F. ) ;
#251 = ORIENTED_EDGE ( 'NONE', *, *, #112, .F. ) ;
#252 = AXIS2_PLACEMENT_3D ( 'NONE', #83, #43, #46 ) ;
#253 = EDGE_CURVE ( 'NONE', #73, #103, #247, .T. ) ;
#254 = DIRECTION ( 'NONE',  ( 0.000000000000000000, 0.000000000000000000, 1.000000000000000000 ) ) ;
#255 = COORDINATED_UNIVERSAL_TIME_OFFSET ( 1, 0, .AHEAD. ) ;
ENDSEC;
END-ISO-10303-21;
