ISO-10303-21;
HEADER;
FILE_DESCRIPTION (( 'STEP AP203' ),
    '1' );
FILE_NAME ('2d61.STEP',
    '2022-07-07T17:46:27',
    ( '' ),
    ( '' ),
    'SwSTEP 2.0',
    'SolidWorks 2019',
    '' );
FILE_SCHEMA (( 'CONFIG_CONTROL_DESIGN' ));
ENDSEC;

DATA;
#1 = LINE ( 'NONE', #208, #226 ) ;
#2 = ORIENTED_EDGE ( 'NONE', *, *, #255, .T. ) ;
#3 = ORIENTED_EDGE ( 'NONE', *, *, #135, .F. ) ;
#4 = APPROVAL_PERSON_ORGANIZATION ( #32, #8, #91 ) ;
#5 = APPROVAL_ROLE ( '' ) ;
#6 = VERTEX_POINT ( 'NONE', #180 ) ;
#7 = CYLINDRICAL_SURFACE ( 'NONE', #165, 5.000000000000000000 ) ;
#8 = APPROVAL ( #15, 'NEURÈENÝ' ) ;
#9 = ORIENTED_EDGE ( 'NONE', *, *, #255, .F. ) ;
#10 = PERSON_AND_ORGANIZATION ( #30, #162 ) ;
#11 = DIRECTION ( 'NONE',  ( 0.000000000000000000, 0.000000000000000000, 1.000000000000000000 ) ) ;
#12 = AXIS2_PLACEMENT_3D ( 'NONE', #26, #159, #76 ) ;
#13 = CARTESIAN_POINT ( 'NONE',  ( 2.500000000000000000, 3.061616997868383141E-16, 503.0000000000000000 ) ) ;
#14 = AXIS2_PLACEMENT_3D ( 'NONE', #174, #19, #150 ) ;
#15 = APPROVAL_STATUS ( 'not_yet_approved' ) ;
#16 = CARTESIAN_POINT ( 'NONE',  ( 5.000000000000000000, 6.123233995736766282E-16, 3.000000000000000000 ) ) ;
#17 = DATE_AND_TIME ( #190, #187 ) ;
#18 = ADVANCED_FACE ( 'NONE', ( #27 ), #7, .T. ) ;
#19 = DIRECTION ( 'NONE',  ( 0.000000000000000000, 0.000000000000000000, 1.000000000000000000 ) ) ;
#20 = COORDINATED_UNIVERSAL_TIME_OFFSET ( 1, 0, .AHEAD. ) ;
#21 = AXIS2_PLACEMENT_3D ( 'NONE', #39, #113, #155 ) ;
#22 = DIRECTION ( 'NONE',  ( -0.000000000000000000, -0.000000000000000000, -1.000000000000000000 ) ) ;
#23 = LOCAL_TIME ( 19, 46, 27.00000000000000000, #86 ) ;
#24 = APPROVAL_DATE_TIME ( #212, #202 ) ;
#25 = ORIENTED_EDGE ( 'NONE', *, *, #218, .F. ) ;
#26 = CARTESIAN_POINT ( 'NONE',  ( 0.000000000000000000, 0.000000000000000000, 3.000000000000000000 ) ) ;
#27 = FACE_OUTER_BOUND ( 'NONE', #160, .T. ) ;
#28 = PRODUCT ( '2d61', '2d61', '', ( #169 ) ) ;
#29 = ORIENTED_EDGE ( 'NONE', *, *, #225, .T. ) ;
#30 = PERSON ( 'NEURÈENÝ', 'NEURÈENÝ', 'NEURÈENÝ', ('NEURÈENÝ'), ('NEURÈENÝ'), ('NEURÈENÝ') ) ;
#31 = APPROVAL_PERSON_ORGANIZATION ( #145, #202, #5 ) ;
#32 = PERSON_AND_ORGANIZATION ( #30, #162 ) ;
#33 = CYLINDRICAL_SURFACE ( 'NONE', #194, 2.500000000000000000 ) ;
#34 = DIRECTION ( 'NONE',  ( 1.000000000000000000, 0.000000000000000000, 0.000000000000000000 ) ) ;
#35 = CARTESIAN_POINT ( 'NONE',  ( 0.000000000000000000, 0.000000000000000000, 503.0000000000000000 ) ) ;
#36 = CARTESIAN_POINT ( 'NONE',  ( 0.000000000000000000, 0.000000000000000000, 0.000000000000000000 ) ) ;
#37 = COORDINATED_UNIVERSAL_TIME_OFFSET ( 1, 0, .AHEAD. ) ;
#38 = DIRECTION ( 'NONE',  ( 0.000000000000000000, 0.000000000000000000, 1.000000000000000000 ) ) ;
#39 = CARTESIAN_POINT ( 'NONE',  ( 0.000000000000000000, 0.000000000000000000, 3.000000000000000000 ) ) ;
#40 = DIRECTION ( 'NONE',  ( 1.000000000000000000, 0.000000000000000000, 0.000000000000000000 ) ) ;
#41 = CC_DESIGN_APPROVAL ( #205, ( #57 ) ) ;
#42 = ORIENTED_EDGE ( 'NONE', *, *, #230, .T. ) ;
#43 = EDGE_CURVE ( 'NONE', #77, #6, #240, .T. ) ;
#44 = CARTESIAN_POINT ( 'NONE',  ( 2.500000000000000000, 3.061616997868383141E-16, 3.000000000000000000 ) ) ;
#45 = ORIENTED_EDGE ( 'NONE', *, *, #67, .T. ) ;
#46 = FACE_OUTER_BOUND ( 'NONE', #244, .T. ) ;
#47 = AXIS2_PLACEMENT_3D ( 'NONE', #122, #203, #219 ) ;
#48 = LOCAL_TIME ( 19, 46, 27.00000000000000000, #37 ) ;
#49 = CARTESIAN_POINT ( 'NONE',  ( -2.500000000000000000, 0.000000000000000000, 503.0000000000000000 ) ) ;
#50 = DIRECTION ( 'NONE',  ( 0.000000000000000000, 0.000000000000000000, 1.000000000000000000 ) ) ;
#51 = SECURITY_CLASSIFICATION_LEVEL ( 'unclassified' ) ;
#52 = CALENDAR_DATE ( 2022, 7, 7 ) ;
#53 = DIRECTION ( 'NONE',  ( -1.000000000000000000, 0.000000000000000000, 0.000000000000000000 ) ) ;
#54 = CARTESIAN_POINT ( 'NONE',  ( -5.000000000000000000, 0.000000000000000000, 3.000000000000000000 ) ) ;
#55 = DIRECTION ( 'NONE',  ( -0.000000000000000000, -0.000000000000000000, -1.000000000000000000 ) ) ;
#56 = DIRECTION ( 'NONE',  ( 1.000000000000000000, 0.000000000000000000, 0.000000000000000000 ) ) ;
#57 = PRODUCT_DEFINITION ( 'NEZNÁMÝ', '', #78, #147 ) ;
#58 = APPLICATION_CONTEXT ( 'configuration controlled 3d designs of mechanical parts and assemblies' ) ;
#59 = ORIENTED_EDGE ( 'NONE', *, *, #103, .T. ) ;
#60 = EDGE_CURVE ( 'NONE', #245, #63, #123, .T. ) ;
#61 = ADVANCED_FACE ( 'NONE', ( #46 ), #217, .T. ) ;
#62 = VERTEX_POINT ( 'NONE', #44 ) ;
#63 = VERTEX_POINT ( 'NONE', #118 ) ;
#64 = SECURITY_CLASSIFICATION ( '', '', #51 ) ;
#65 = CC_DESIGN_PERSON_AND_ORGANIZATION_ASSIGNMENT ( #10, #70, ( #78 ) ) ;
#66 = ORIENTED_EDGE ( 'NONE', *, *, #43, .T. ) ;
#67 = EDGE_CURVE ( 'NONE', #62, #97, #246, .T. ) ;
#68 =( GEOMETRIC_REPRESENTATION_CONTEXT ( 3 ) GLOBAL_UNCERTAINTY_ASSIGNED_CONTEXT ( ( #186 ) ) GLOBAL_UNIT_ASSIGNED_CONTEXT ( ( #146, #210, #228 ) ) REPRESENTATION_CONTEXT ( 'NONE', 'WORKASPACE' ) );
#69 = CALENDAR_DATE ( 2022, 7, 7 ) ;
#70 = PERSON_AND_ORGANIZATION_ROLE ( 'creator' ) ;
#71 = APPROVAL_STATUS ( 'not_yet_approved' ) ;
#72 = FACE_OUTER_BOUND ( 'NONE', #139, .T. ) ;
#73 = APPLICATION_PROTOCOL_DEFINITION ( 'international standard', 'config_control_design', 1994, #101 ) ;
#74 = CARTESIAN_POINT ( 'NONE',  ( -2.500000000000000000, 0.000000000000000000, 3.000000000000000000 ) ) ;
#75 = DIRECTION ( 'NONE',  ( 1.000000000000000000, 0.000000000000000000, 0.000000000000000000 ) ) ;
#76 = DIRECTION ( 'NONE',  ( 1.000000000000000000, 0.000000000000000000, 0.000000000000000000 ) ) ;
#77 = VERTEX_POINT ( 'NONE', #198 ) ;
#78 = PRODUCT_DEFINITION_FORMATION_WITH_SPECIFIED_SOURCE ( 'LIBOVOLNÝ', '', #28, .NOT_KNOWN. ) ;
#79 = LOCAL_TIME ( 19, 46, 27.00000000000000000, #197 ) ;
#80 = ORIENTED_EDGE ( 'NONE', *, *, #103, .F. ) ;
#81 = CARTESIAN_POINT ( 'NONE',  ( 0.000000000000000000, 0.000000000000000000, 3.000000000000000000 ) ) ;
#82 = ORIENTED_EDGE ( 'NONE', *, *, #238, .F. ) ;
#83 = CIRCLE ( 'NONE', #181, 5.000000000000000000 ) ;
#84 = ADVANCED_FACE ( 'NONE', ( #196 ), #239, .T. ) ;
#85 = VECTOR ( 'NONE', #107, 1000.000000000000000 ) ;
#86 = COORDINATED_UNIVERSAL_TIME_OFFSET ( 1, 0, .AHEAD. ) ;
#87 = CLOSED_SHELL ( 'NONE', ( #129, #18, #84, #176, #251, #105, #61 ) ) ;
#88 = PERSON_AND_ORGANIZATION ( #30, #162 ) ;
#89 = VECTOR ( 'NONE', #22, 1000.000000000000000 ) ;
#90 = CARTESIAN_POINT ( 'NONE',  ( 0.000000000000000000, 0.000000000000000000, 503.0000000000000000 ) ) ;
#91 = APPROVAL_ROLE ( '' ) ;
#92 = CYLINDRICAL_SURFACE ( 'NONE', #200, 2.500000000000000000 ) ;
#93 = DATE_AND_TIME ( #247, #216 ) ;
#94 = DIRECTION ( 'NONE',  ( -0.000000000000000000, -0.000000000000000000, -1.000000000000000000 ) ) ;
#95 = CC_DESIGN_DATE_AND_TIME_ASSIGNMENT ( #17, #206, ( #57 ) ) ;
#96 = DIRECTION ( 'NONE',  ( 0.000000000000000000, 0.000000000000000000, 1.000000000000000000 ) ) ;
#97 = VERTEX_POINT ( 'NONE', #74 ) ;
#98 = DIRECTION ( 'NONE',  ( 0.000000000000000000, 0.000000000000000000, 1.000000000000000000 ) ) ;
#99 = EDGE_LOOP ( 'NONE', ( #132, #138 ) ) ;
#100 = AXIS2_PLACEMENT_3D ( 'NONE', #168, #130, #75 ) ;
#101 = APPLICATION_CONTEXT ( 'configuration controlled 3d designs of mechanical parts and assemblies' ) ;
#102 = ORIENTED_EDGE ( 'NONE', *, *, #60, .T. ) ;
#103 = EDGE_CURVE ( 'NONE', #63, #77, #207, .T. ) ;
#104 = CARTESIAN_POINT ( 'NONE',  ( 0.000000000000000000, 0.000000000000000000, 503.0000000000000000 ) ) ;
#105 = ADVANCED_FACE ( 'NONE', ( #254 ), #33, .T. ) ;
#106 = CIRCLE ( 'NONE', #209, 2.500000000000000000 ) ;
#107 = DIRECTION ( 'NONE',  ( -0.000000000000000000, -0.000000000000000000, -1.000000000000000000 ) ) ;
#108 = PLANE ( 'NONE',  #179 ) ;
#109 = PERSON_AND_ORGANIZATION ( #30, #162 ) ;
#110 = FACE_BOUND ( 'NONE', #99, .T. ) ;
#111 = ORIENTED_EDGE ( 'NONE', *, *, #135, .T. ) ;
#112 = CIRCLE ( 'NONE', #234, 2.500000000000000000 ) ;
#113 = DIRECTION ( 'NONE',  ( 0.000000000000000000, 0.000000000000000000, 1.000000000000000000 ) ) ;
#114 = FACE_OUTER_BOUND ( 'NONE', #140, .T. ) ;
#115 = APPROVAL_PERSON_ORGANIZATION ( #131, #205, #151 ) ;
#116 = ORIENTED_EDGE ( 'NONE', *, *, #141, .T. ) ;
#117 = APPROVAL_STATUS ( 'not_yet_approved' ) ;
#118 = CARTESIAN_POINT ( 'NONE',  ( -5.000000000000000000, 0.000000000000000000, 3.000000000000000000 ) ) ;
#119 = AXIS2_PLACEMENT_3D ( 'NONE', #177, #98, #56 ) ;
#120 = EDGE_LOOP ( 'NONE', ( #82, #111, #45, #25 ) ) ;
#121 = AXIS2_PLACEMENT_3D ( 'NONE', #36, #50, #211 ) ;
#122 = CARTESIAN_POINT ( 'NONE',  ( 0.000000000000000000, 0.000000000000000000, 503.0000000000000000 ) ) ;
#123 = CIRCLE ( 'NONE', #12, 5.000000000000000000 ) ;
#124 = ADVANCED_BREP_SHAPE_REPRESENTATION ( '2d61', ( #223, #157 ), #68 ) ;
#125 = COORDINATED_UNIVERSAL_TIME_OFFSET ( 1, 0, .AHEAD. ) ;
#126 = CC_DESIGN_DATE_AND_TIME_ASSIGNMENT ( #142, #248, ( #64 ) ) ;
#127 = DIRECTION ( 'NONE',  ( -0.000000000000000000, -0.000000000000000000, -1.000000000000000000 ) ) ;
#128 = PERSON_AND_ORGANIZATION_ROLE ( 'design_owner' ) ;
#129 = ADVANCED_FACE ( 'NONE', ( #133 ), #92, .T. ) ;
#130 = DIRECTION ( 'NONE',  ( 0.000000000000000000, 0.000000000000000000, 1.000000000000000000 ) ) ;
#131 = PERSON_AND_ORGANIZATION ( #30, #162 ) ;
#132 = ORIENTED_EDGE ( 'NONE', *, *, #144, .F. ) ;
#133 = FACE_OUTER_BOUND ( 'NONE', #120, .T. ) ;
#134 = DIRECTION ( 'NONE',  ( -1.000000000000000000, 0.000000000000000000, 0.000000000000000000 ) ) ;
#135 = EDGE_CURVE ( 'NONE', #204, #62, #1, .T. ) ;
#136 = CARTESIAN_POINT ( 'NONE',  ( 0.000000000000000000, 0.000000000000000000, 3.000000000000000000 ) ) ;
#137 = DIRECTION ( 'NONE',  ( -0.000000000000000000, -0.000000000000000000, -1.000000000000000000 ) ) ;
#138 = ORIENTED_EDGE ( 'NONE', *, *, #67, .F. ) ;
#139 = EDGE_LOOP ( 'NONE', ( #2, #102 ) ) ;
#140 = EDGE_LOOP ( 'NONE', ( #154, #158 ) ) ;
#141 = EDGE_CURVE ( 'NONE', #245, #6, #170, .T. ) ;
#142 = DATE_AND_TIME ( #69, #23 ) ;
#143 = CC_DESIGN_SECURITY_CLASSIFICATION ( #64, ( #78 ) ) ;
#144 = EDGE_CURVE ( 'NONE', #97, #62, #112, .T. ) ;
#145 = PERSON_AND_ORGANIZATION ( #30, #162 ) ;
#146 =( LENGTH_UNIT ( ) NAMED_UNIT ( * ) SI_UNIT ( .MILLI., .METRE. ) );
#147 = DESIGN_CONTEXT ( 'detailed design', #101, 'design' ) ;
#148 = PERSON_AND_ORGANIZATION ( #30, #162 ) ;
#149 = CC_DESIGN_PERSON_AND_ORGANIZATION_ASSIGNMENT ( #148, #128, ( #28 ) ) ;
#150 = DIRECTION ( 'NONE',  ( 1.000000000000000000, 0.000000000000000000, 0.000000000000000000 ) ) ;
#151 = APPROVAL_ROLE ( '' ) ;
#152 = CC_DESIGN_APPROVAL ( #202, ( #64 ) ) ;
#153 = CARTESIAN_POINT ( 'NONE',  ( 0.000000000000000000, 0.000000000000000000, 3.000000000000000000 ) ) ;
#154 = ORIENTED_EDGE ( 'NONE', *, *, #43, .F. ) ;
#155 = DIRECTION ( 'NONE',  ( 1.000000000000000000, 0.000000000000000000, 0.000000000000000000 ) ) ;
#156 = ORIENTED_EDGE ( 'NONE', *, *, #60, .F. ) ;
#157 = AXIS2_PLACEMENT_3D ( 'NONE', #253, #11, #34 ) ;
#158 = ORIENTED_EDGE ( 'NONE', *, *, #225, .F. ) ;
#159 = DIRECTION ( 'NONE',  ( 0.000000000000000000, 0.000000000000000000, 1.000000000000000000 ) ) ;
#160 = EDGE_LOOP ( 'NONE', ( #156, #116, #29, #80 ) ) ;
#161 = AXIS2_PLACEMENT_3D ( 'NONE', #178, #137, #53 ) ;
#162 = ORGANIZATION ( 'NEURÈENÝ', 'NEURÈENÝ', '' ) ;
#163 = ORIENTED_EDGE ( 'NONE', *, *, #238, .T. ) ;
#164 = CC_DESIGN_PERSON_AND_ORGANIZATION_ASSIGNMENT ( #88, #167, ( #78 ) ) ;
#165 = AXIS2_PLACEMENT_3D ( 'NONE', #81, #55, #175 ) ;
#166 = APPROVAL_DATE_TIME ( #235, #205 ) ;
#167 = PERSON_AND_ORGANIZATION_ROLE ( 'design_supplier' ) ;
#168 = CARTESIAN_POINT ( 'NONE',  ( 0.000000000000000000, 0.000000000000000000, 0.000000000000000000 ) ) ;
#169 = MECHANICAL_CONTEXT ( 'NONE', #58, 'mechanical' ) ;
#170 = LINE ( 'NONE', #189, #232 ) ;
#171 = APPROVAL_DATE_TIME ( #93, #8 ) ;
#172 = DIRECTION ( 'NONE',  ( 1.000000000000000000, 0.000000000000000000, 0.000000000000000000 ) ) ;
#173 = CIRCLE ( 'NONE', #14, 2.500000000000000000 ) ;
#174 = CARTESIAN_POINT ( 'NONE',  ( 0.000000000000000000, 0.000000000000000000, 503.0000000000000000 ) ) ;
#175 = DIRECTION ( 'NONE',  ( -1.000000000000000000, 0.000000000000000000, 0.000000000000000000 ) ) ;
#176 = ADVANCED_FACE ( 'NONE', ( #110, #72 ), #108, .T. ) ;
#177 = CARTESIAN_POINT ( 'NONE',  ( 0.000000000000000000, 0.000000000000000000, 0.000000000000000000 ) ) ;
#178 = CARTESIAN_POINT ( 'NONE',  ( 0.000000000000000000, 0.000000000000000000, 3.000000000000000000 ) ) ;
#179 = AXIS2_PLACEMENT_3D ( 'NONE', #153, #236, #213 ) ;
#180 = CARTESIAN_POINT ( 'NONE',  ( 5.000000000000000000, 6.123233995736766282E-16, 0.000000000000000000 ) ) ;
#181 = AXIS2_PLACEMENT_3D ( 'NONE', #191, #237, #40 ) ;
#182 = CC_DESIGN_APPROVAL ( #8, ( #78 ) ) ;
#183 = CC_DESIGN_PERSON_AND_ORGANIZATION_ASSIGNMENT ( #109, #192, ( #57 ) ) ;
#184 = PERSON_AND_ORGANIZATION ( #30, #162 ) ;
#185 = DIRECTION ( 'NONE',  ( -0.000000000000000000, -0.000000000000000000, -1.000000000000000000 ) ) ;
#186 = UNCERTAINTY_MEASURE_WITH_UNIT (LENGTH_MEASURE( 1.000000000000000082E-05 ), #146, 'distance_accuracy_value', 'NONE');
#187 = LOCAL_TIME ( 19, 46, 27.00000000000000000, #125 ) ;
#188 = CALENDAR_DATE ( 2022, 7, 7 ) ;
#189 = CARTESIAN_POINT ( 'NONE',  ( 5.000000000000000000, 6.123233995736766282E-16, 3.000000000000000000 ) ) ;
#190 = CALENDAR_DATE ( 2022, 7, 7 ) ;
#191 = CARTESIAN_POINT ( 'NONE',  ( 0.000000000000000000, 0.000000000000000000, 3.000000000000000000 ) ) ;
#192 = PERSON_AND_ORGANIZATION_ROLE ( 'creator' ) ;
#193 = CARTESIAN_POINT ( 'NONE',  ( -2.500000000000000000, 0.000000000000000000, 503.0000000000000000 ) ) ;
#194 = AXIS2_PLACEMENT_3D ( 'NONE', #104, #94, #229 ) ;
#195 = SHAPE_DEFINITION_REPRESENTATION ( #199, #124 ) ;
#196 = FACE_OUTER_BOUND ( 'NONE', #214, .T. ) ;
#197 = COORDINATED_UNIVERSAL_TIME_OFFSET ( 1, 0, .AHEAD. ) ;
#198 = CARTESIAN_POINT ( 'NONE',  ( -5.000000000000000000, 0.000000000000000000, 0.000000000000000000 ) ) ;
#199 = PRODUCT_DEFINITION_SHAPE ( 'NONE', 'NONE',  #57 ) ;
#200 = AXIS2_PLACEMENT_3D ( 'NONE', #90, #185, #134 ) ;
#201 = VERTEX_POINT ( 'NONE', #193 ) ;
#202 = APPROVAL ( #117, 'NEURÈENÝ' ) ;
#203 = DIRECTION ( 'NONE',  ( 0.000000000000000000, 0.000000000000000000, 1.000000000000000000 ) ) ;
#204 = VERTEX_POINT ( 'NONE', #13 ) ;
#205 = APPROVAL ( #71, 'NEURÈENÝ' ) ;
#206 = DATE_TIME_ROLE ( 'creation_date' ) ;
#207 = LINE ( 'NONE', #54, #85 ) ;
#208 = CARTESIAN_POINT ( 'NONE',  ( 2.500000000000000000, 3.061616997868383141E-16, 503.0000000000000000 ) ) ;
#209 = AXIS2_PLACEMENT_3D ( 'NONE', #35, #96, #249 ) ;
#210 =( NAMED_UNIT ( * ) PLANE_ANGLE_UNIT ( ) SI_UNIT ( $, .RADIAN. ) );
#211 = DIRECTION ( 'NONE',  ( 1.000000000000000000, 0.000000000000000000, -0.000000000000000000 ) ) ;
#212 = DATE_AND_TIME ( #52, #79 ) ;
#213 = DIRECTION ( 'NONE',  ( 1.000000000000000000, 0.000000000000000000, -0.000000000000000000 ) ) ;
#214 = EDGE_LOOP ( 'NONE', ( #220, #9, #59, #66 ) ) ;
#215 = LINE ( 'NONE', #49, #89 ) ;
#216 = LOCAL_TIME ( 19, 46, 27.00000000000000000, #20 ) ;
#217 = PLANE ( 'NONE',  #47 ) ;
#218 = EDGE_CURVE ( 'NONE', #201, #97, #215, .T. ) ;
#219 = DIRECTION ( 'NONE',  ( 1.000000000000000000, 0.000000000000000000, -0.000000000000000000 ) ) ;
#220 = ORIENTED_EDGE ( 'NONE', *, *, #141, .F. ) ;
#221 = CC_DESIGN_PERSON_AND_ORGANIZATION_ASSIGNMENT ( #184, #250, ( #64 ) ) ;
#222 = EDGE_LOOP ( 'NONE', ( #3, #243, #231, #242 ) ) ;
#223 = MANIFOLD_SOLID_BREP ( 'Pøidat vysunutím3', #87 ) ;
#224 = PRODUCT_RELATED_PRODUCT_CATEGORY ( 'detail', '', ( #28 ) ) ;
#225 = EDGE_CURVE ( 'NONE', #6, #77, #241, .T. ) ;
#226 = VECTOR ( 'NONE', #252, 1000.000000000000000 ) ;
#227 = APPLICATION_PROTOCOL_DEFINITION ( 'international standard', 'config_control_design', 1994, #58 ) ;
#228 =( NAMED_UNIT ( * ) SI_UNIT ( $, .STERADIAN. ) SOLID_ANGLE_UNIT ( ) );
#229 = DIRECTION ( 'NONE',  ( -1.000000000000000000, 0.000000000000000000, 0.000000000000000000 ) ) ;
#230 = EDGE_CURVE ( 'NONE', #201, #204, #106, .T. ) ;
#231 = ORIENTED_EDGE ( 'NONE', *, *, #218, .T. ) ;
#232 = VECTOR ( 'NONE', #127, 1000.000000000000000 ) ;
#233 = PLANE ( 'NONE',  #121 ) ;
#234 = AXIS2_PLACEMENT_3D ( 'NONE', #136, #38, #172 ) ;
#235 = DATE_AND_TIME ( #188, #48 ) ;
#236 = DIRECTION ( 'NONE',  ( 0.000000000000000000, 0.000000000000000000, 1.000000000000000000 ) ) ;
#237 = DIRECTION ( 'NONE',  ( 0.000000000000000000, 0.000000000000000000, 1.000000000000000000 ) ) ;
#238 = EDGE_CURVE ( 'NONE', #204, #201, #173, .T. ) ;
#239 = CYLINDRICAL_SURFACE ( 'NONE', #161, 5.000000000000000000 ) ;
#240 = CIRCLE ( 'NONE', #119, 5.000000000000000000 ) ;
#241 = CIRCLE ( 'NONE', #100, 5.000000000000000000 ) ;
#242 = ORIENTED_EDGE ( 'NONE', *, *, #144, .T. ) ;
#243 = ORIENTED_EDGE ( 'NONE', *, *, #230, .F. ) ;
#244 = EDGE_LOOP ( 'NONE', ( #42, #163 ) ) ;
#245 = VERTEX_POINT ( 'NONE', #16 ) ;
#246 = CIRCLE ( 'NONE', #21, 2.500000000000000000 ) ;
#247 = CALENDAR_DATE ( 2022, 7, 7 ) ;
#248 = DATE_TIME_ROLE ( 'classification_date' ) ;
#249 = DIRECTION ( 'NONE',  ( 1.000000000000000000, 0.000000000000000000, 0.000000000000000000 ) ) ;
#250 = PERSON_AND_ORGANIZATION_ROLE ( 'classification_officer' ) ;
#251 = ADVANCED_FACE ( 'NONE', ( #114 ), #233, .F. ) ;
#252 = DIRECTION ( 'NONE',  ( -0.000000000000000000, -0.000000000000000000, -1.000000000000000000 ) ) ;
#253 = CARTESIAN_POINT ( 'NONE',  ( 0.000000000000000000, 0.000000000000000000, 0.000000000000000000 ) ) ;
#254 = FACE_OUTER_BOUND ( 'NONE', #222, .T. ) ;
#255 = EDGE_CURVE ( 'NONE', #63, #245, #83, .T. ) ;
ENDSEC;
END-ISO-10303-21;
