ISO-10303-21;
HEADER;
FILE_DESCRIPTION (( 'STEP AP203' ),
    '1' );
FILE_NAME ('94f2.STEP',
    '2022-07-07T17:35:17',
    ( '' ),
    ( '' ),
    'SwSTEP 2.0',
    'SolidWorks 2019',
    '' );
FILE_SCHEMA (( 'CONFIG_CONTROL_DESIGN' ));
ENDSEC;

DATA;
#1 = EDGE_CURVE ( 'NONE', #25, #164, #212, .T. ) ;
#2 = AXIS2_PLACEMENT_3D ( 'NONE', #65, #111, #204 ) ;
#3 = CIRCLE ( 'NONE', #247, 6.000000000000000888 ) ;
#4 = ORIENTED_EDGE ( 'NONE', *, *, #87, .T. ) ;
#5 = LINE ( 'NONE', #241, #199 ) ;
#6 = ORIENTED_EDGE ( 'NONE', *, *, #86, .F. ) ;
#7 = CARTESIAN_POINT ( 'NONE',  ( -3.750000000000000000, 0.000000000000000000, 105.0000000000000142 ) ) ;
#8 = APPROVAL ( #36, 'NEURÈENÝ' ) ;
#9 = DIRECTION ( 'NONE',  ( 1.000000000000000000, 0.000000000000000000, -0.000000000000000000 ) ) ;
#10 = CARTESIAN_POINT ( 'NONE',  ( -6.000000000000000888, 0.000000000000000000, 5.000000000000000000 ) ) ;
#11 = VECTOR ( 'NONE', #30, 1000.000000000000000 ) ;
#12 = APPROVAL_PERSON_ORGANIZATION ( #254, #203, #74 ) ;
#13 = DIRECTION ( 'NONE',  ( 1.000000000000000000, 0.000000000000000000, 0.000000000000000000 ) ) ;
#14 = PERSON_AND_ORGANIZATION_ROLE ( 'design_owner' ) ;
#15 =( NAMED_UNIT ( * ) PLANE_ANGLE_UNIT ( ) SI_UNIT ( $, .RADIAN. ) );
#16 = PERSON_AND_ORGANIZATION ( #253, #196 ) ;
#17 = FACE_OUTER_BOUND ( 'NONE', #137, .T. ) ;
#18 = CALENDAR_DATE ( 2022, 7, 7 ) ;
#19 = DIRECTION ( 'NONE',  ( -0.000000000000000000, -0.000000000000000000, -1.000000000000000000 ) ) ;
#20 = APPROVAL_STATUS ( 'not_yet_approved' ) ;
#21 = CC_DESIGN_PERSON_AND_ORGANIZATION_ASSIGNMENT ( #99, #209, ( #85 ) ) ;
#22 = VERTEX_POINT ( 'NONE', #166 ) ;
#23 = EDGE_LOOP ( 'NONE', ( #122, #41 ) ) ;
#24 = DIRECTION ( 'NONE',  ( 0.000000000000000000, 0.000000000000000000, 1.000000000000000000 ) ) ;
#25 = VERTEX_POINT ( 'NONE', #28 ) ;
#26 = AXIS2_PLACEMENT_3D ( 'NONE', #216, #187, #13 ) ;
#27 = CC_DESIGN_SECURITY_CLASSIFICATION ( #139, ( #85 ) ) ;
#28 = CARTESIAN_POINT ( 'NONE',  ( 6.000000000000000888, 7.347880794884120722E-16, 0.000000000000000000 ) ) ;
#29 = ADVANCED_FACE ( 'NONE', ( #162 ), #223, .T. ) ;
#30 = DIRECTION ( 'NONE',  ( -0.000000000000000000, -0.000000000000000000, -1.000000000000000000 ) ) ;
#31 = ADVANCED_BREP_SHAPE_REPRESENTATION ( '94f2', ( #63, #67 ), #165 ) ;
#32 = DIRECTION ( 'NONE',  ( 1.000000000000000000, 0.000000000000000000, 0.000000000000000000 ) ) ;
#33 = UNCERTAINTY_MEASURE_WITH_UNIT (LENGTH_MEASURE( 1.000000000000000082E-05 ), #78, 'distance_accuracy_value', 'NONE');
#34 = AXIS2_PLACEMENT_3D ( 'NONE', #194, #73, #37 ) ;
#35 = DIRECTION ( 'NONE',  ( 0.000000000000000000, 0.000000000000000000, 1.000000000000000000 ) ) ;
#36 = APPROVAL_STATUS ( 'not_yet_approved' ) ;
#37 = DIRECTION ( 'NONE',  ( 1.000000000000000000, 0.000000000000000000, -0.000000000000000000 ) ) ;
#38 = APPLICATION_PROTOCOL_DEFINITION ( 'international standard', 'config_control_design', 1994, #158 ) ;
#39 = FACE_BOUND ( 'NONE', #66, .T. ) ;
#40 = LOCAL_TIME ( 19, 35, 17.00000000000000000, #193 ) ;
#41 = ORIENTED_EDGE ( 'NONE', *, *, #59, .T. ) ;
#42 = EDGE_CURVE ( 'NONE', #83, #96, #5, .T. ) ;
#43 = CLOSED_SHELL ( 'NONE', ( #47, #173, #245, #231, #82, #29, #79 ) ) ;
#44 = ORIENTED_EDGE ( 'NONE', *, *, #88, .T. ) ;
#45 = CIRCLE ( 'NONE', #190, 3.750000000000000000 ) ;
#46 = EDGE_LOOP ( 'NONE', ( #205, #80 ) ) ;
#47 = ADVANCED_FACE ( 'NONE', ( #69 ), #91, .T. ) ;
#48 = DIRECTION ( 'NONE',  ( -0.000000000000000000, -0.000000000000000000, -1.000000000000000000 ) ) ;
#49 = EDGE_LOOP ( 'NONE', ( #6, #81 ) ) ;
#50 = ORIENTED_EDGE ( 'NONE', *, *, #42, .F. ) ;
#51 = AXIS2_PLACEMENT_3D ( 'NONE', #60, #35, #52 ) ;
#52 = DIRECTION ( 'NONE',  ( 1.000000000000000000, 0.000000000000000000, 0.000000000000000000 ) ) ;
#53 = APPROVAL_DATE_TIME ( #230, #203 ) ;
#54 = LINE ( 'NONE', #174, #92 ) ;
#55 = PERSON_AND_ORGANIZATION ( #253, #196 ) ;
#56 = AXIS2_PLACEMENT_3D ( 'NONE', #115, #214, #117 ) ;
#57 = CARTESIAN_POINT ( 'NONE',  ( -6.000000000000000888, 0.000000000000000000, 0.000000000000000000 ) ) ;
#58 = APPROVAL_ROLE ( '' ) ;
#59 = EDGE_CURVE ( 'NONE', #22, #89, #72, .T. ) ;
#60 = CARTESIAN_POINT ( 'NONE',  ( 0.000000000000000000, 0.000000000000000000, 5.000000000000000000 ) ) ;
#61 = COORDINATED_UNIVERSAL_TIME_OFFSET ( 1, 0, .AHEAD. ) ;
#62 = CC_DESIGN_PERSON_AND_ORGANIZATION_ASSIGNMENT ( #55, #14, ( #121 ) ) ;
#63 = MANIFOLD_SOLID_BREP ( 'Pøidat vysunutím3', #43 ) ;
#64 = ORIENTED_EDGE ( 'NONE', *, *, #97, .F. ) ;
#65 = CARTESIAN_POINT ( 'NONE',  ( 0.000000000000000000, 0.000000000000000000, 105.0000000000000142 ) ) ;
#66 = EDGE_LOOP ( 'NONE', ( #108, #202 ) ) ;
#67 = AXIS2_PLACEMENT_3D ( 'NONE', #118, #116, #189 ) ;
#68 = CARTESIAN_POINT ( 'NONE',  ( 0.000000000000000000, 0.000000000000000000, 105.0000000000000142 ) ) ;
#69 = FACE_OUTER_BOUND ( 'NONE', #244, .T. ) ;
#70 = ORIENTED_EDGE ( 'NONE', *, *, #59, .F. ) ;
#71 = DESIGN_CONTEXT ( 'detailed design', #158, 'design' ) ;
#72 = CIRCLE ( 'NONE', #220, 6.000000000000000888 ) ;
#73 = DIRECTION ( 'NONE',  ( 0.000000000000000000, 0.000000000000000000, 1.000000000000000000 ) ) ;
#74 = APPROVAL_ROLE ( '' ) ;
#75 = DIRECTION ( 'NONE',  ( -0.000000000000000000, -0.000000000000000000, -1.000000000000000000 ) ) ;
#76 = DATE_TIME_ROLE ( 'creation_date' ) ;
#77 = DATE_AND_TIME ( #211, #153 ) ;
#78 =( LENGTH_UNIT ( ) NAMED_UNIT ( * ) SI_UNIT ( .MILLI., .METRE. ) );
#79 = ADVANCED_FACE ( 'NONE', ( #167 ), #128, .T. ) ;
#80 = ORIENTED_EDGE ( 'NONE', *, *, #198, .T. ) ;
#81 = ORIENTED_EDGE ( 'NONE', *, *, #1, .F. ) ;
#82 = ADVANCED_FACE ( 'NONE', ( #141 ), #145, .F. ) ;
#83 = VERTEX_POINT ( 'NONE', #7 ) ;
#84 = AXIS2_PLACEMENT_3D ( 'NONE', #185, #246, #222 ) ;
#85 = PRODUCT_DEFINITION_FORMATION_WITH_SPECIFIED_SOURCE ( 'LIBOVOLNÝ', '', #121, .NOT_KNOWN. ) ;
#86 = EDGE_CURVE ( 'NONE', #164, #25, #218, .T. ) ;
#87 = EDGE_CURVE ( 'NONE', #226, #96, #105, .T. ) ;
#88 = EDGE_CURVE ( 'NONE', #89, #164, #98, .T. ) ;
#89 = VERTEX_POINT ( 'NONE', #10 ) ;
#90 = DIRECTION ( 'NONE',  ( 0.000000000000000000, 0.000000000000000000, 1.000000000000000000 ) ) ;
#91 = CYLINDRICAL_SURFACE ( 'NONE', #2, 3.750000000000000000 ) ;
#92 = VECTOR ( 'NONE', #250, 1000.000000000000000 ) ;
#93 = CARTESIAN_POINT ( 'NONE',  ( 0.000000000000000000, 0.000000000000000000, 5.000000000000000000 ) ) ;
#94 = DIRECTION ( 'NONE',  ( 1.000000000000000000, 0.000000000000000000, -0.000000000000000000 ) ) ;
#95 = LINE ( 'NONE', #149, #11 ) ;
#96 = VERTEX_POINT ( 'NONE', #208 ) ;
#97 = EDGE_CURVE ( 'NONE', #22, #25, #95, .T. ) ;
#98 = LINE ( 'NONE', #192, #200 ) ;
#99 = PERSON_AND_ORGANIZATION ( #253, #196 ) ;
#100 = CARTESIAN_POINT ( 'NONE',  ( 3.750000000000000000, 4.592425496802573972E-16, 105.0000000000000142 ) ) ;
#101 = APPROVAL_DATE_TIME ( #215, #161 ) ;
#102 = CIRCLE ( 'NONE', #207, 3.750000000000000000 ) ;
#103 = MECHANICAL_CONTEXT ( 'NONE', #178, 'mechanical' ) ;
#104 = APPROVAL_PERSON_ORGANIZATION ( #152, #161, #58 ) ;
#105 = CIRCLE ( 'NONE', #26, 3.750000000000000000 ) ;
#106 = CARTESIAN_POINT ( 'NONE',  ( 0.000000000000000000, 0.000000000000000000, 0.000000000000000000 ) ) ;
#107 = DIRECTION ( 'NONE',  ( 0.000000000000000000, 0.000000000000000000, 1.000000000000000000 ) ) ;
#108 = ORIENTED_EDGE ( 'NONE', *, *, #255, .F. ) ;
#109 = AXIS2_PLACEMENT_3D ( 'NONE', #68, #90, #9 ) ;
#110 = AXIS2_PLACEMENT_3D ( 'NONE', #163, #48, #240 ) ;
#111 = DIRECTION ( 'NONE',  ( -0.000000000000000000, -0.000000000000000000, -1.000000000000000000 ) ) ;
#112 = ORIENTED_EDGE ( 'NONE', *, *, #238, .F. ) ;
#113 = CC_DESIGN_PERSON_AND_ORGANIZATION_ASSIGNMENT ( #16, #176, ( #224 ) ) ;
#114 = CYLINDRICAL_SURFACE ( 'NONE', #239, 6.000000000000000888 ) ;
#115 = CARTESIAN_POINT ( 'NONE',  ( 0.000000000000000000, 0.000000000000000000, 5.000000000000000000 ) ) ;
#116 = DIRECTION ( 'NONE',  ( 0.000000000000000000, 0.000000000000000000, 1.000000000000000000 ) ) ;
#117 = DIRECTION ( 'NONE',  ( -1.000000000000000000, 0.000000000000000000, 0.000000000000000000 ) ) ;
#118 = CARTESIAN_POINT ( 'NONE',  ( 0.000000000000000000, 0.000000000000000000, 0.000000000000000000 ) ) ;
#119 = PLANE ( 'NONE',  #34 ) ;
#120 = APPROVAL_DATE_TIME ( #217, #8 ) ;
#121 = PRODUCT ( '94f2', '94f2', '', ( #103 ) ) ;
#122 = ORIENTED_EDGE ( 'NONE', *, *, #238, .T. ) ;
#123 = AXIS2_PLACEMENT_3D ( 'NONE', #206, #184, #94 ) ;
#124 = LOCAL_TIME ( 19, 35, 17.00000000000000000, #61 ) ;
#125 = DIRECTION ( 'NONE',  ( -0.000000000000000000, -0.000000000000000000, -1.000000000000000000 ) ) ;
#126 = DIRECTION ( 'NONE',  ( 1.000000000000000000, 0.000000000000000000, 0.000000000000000000 ) ) ;
#127 = EDGE_CURVE ( 'NONE', #83, #183, #45, .T. ) ;
#128 = PLANE ( 'NONE',  #109 ) ;
#129 = DIRECTION ( 'NONE',  ( 0.000000000000000000, 0.000000000000000000, 1.000000000000000000 ) ) ;
#130 = PERSON_AND_ORGANIZATION_ROLE ( 'creator' ) ;
#131 = DIRECTION ( 'NONE',  ( 0.000000000000000000, 0.000000000000000000, 1.000000000000000000 ) ) ;
#132 = PERSON_AND_ORGANIZATION ( #253, #196 ) ;
#133 = CYLINDRICAL_SURFACE ( 'NONE', #56, 6.000000000000000888 ) ;
#134 = PERSON_AND_ORGANIZATION_ROLE ( 'classification_officer' ) ;
#135 = CARTESIAN_POINT ( 'NONE',  ( 0.000000000000000000, 0.000000000000000000, 105.0000000000000142 ) ) ;
#136 = APPROVAL_ROLE ( '' ) ;
#137 = EDGE_LOOP ( 'NONE', ( #70, #186, #140, #201 ) ) ;
#138 = CC_DESIGN_APPROVAL ( #8, ( #224 ) ) ;
#139 = SECURITY_CLASSIFICATION ( '', '', #233 ) ;
#140 = ORIENTED_EDGE ( 'NONE', *, *, #1, .T. ) ;
#141 = FACE_OUTER_BOUND ( 'NONE', #49, .T. ) ;
#142 = ORIENTED_EDGE ( 'NONE', *, *, #221, .F. ) ;
#143 = PRODUCT_RELATED_PRODUCT_CATEGORY ( 'detail', '', ( #121 ) ) ;
#144 = EDGE_LOOP ( 'NONE', ( #64, #112, #44, #219 ) ) ;
#145 = PLANE ( 'NONE',  #123 ) ;
#146 = APPROVAL_PERSON_ORGANIZATION ( #195, #8, #136 ) ;
#147 = DIRECTION ( 'NONE',  ( 1.000000000000000000, 0.000000000000000000, 0.000000000000000000 ) ) ;
#148 = DATE_AND_TIME ( #251, #124 ) ;
#149 = CARTESIAN_POINT ( 'NONE',  ( 6.000000000000000888, 7.347880794884120722E-16, 5.000000000000000000 ) ) ;
#150 = PERSON_AND_ORGANIZATION ( #253, #196 ) ;
#151 = DIRECTION ( 'NONE',  ( 0.000000000000000000, 0.000000000000000000, 1.000000000000000000 ) ) ;
#152 = PERSON_AND_ORGANIZATION ( #253, #196 ) ;
#153 = LOCAL_TIME ( 19, 35, 17.00000000000000000, #172 ) ;
#154 = AXIS2_PLACEMENT_3D ( 'NONE', #106, #107, #126 ) ;
#155 = FACE_OUTER_BOUND ( 'NONE', #23, .T. ) ;
#156 = COORDINATED_UNIVERSAL_TIME_OFFSET ( 1, 0, .AHEAD. ) ;
#157 = ORIENTED_EDGE ( 'NONE', *, *, #127, .F. ) ;
#158 = APPLICATION_CONTEXT ( 'configuration controlled 3d designs of mechanical parts and assemblies' ) ;
#159 = APPLICATION_PROTOCOL_DEFINITION ( 'international standard', 'config_control_design', 1994, #178 ) ;
#160 = CIRCLE ( 'NONE', #51, 3.750000000000000000 ) ;
#161 = APPROVAL ( #236, 'NEURÈENÝ' ) ;
#162 = FACE_OUTER_BOUND ( 'NONE', #225, .T. ) ;
#163 = CARTESIAN_POINT ( 'NONE',  ( 0.000000000000000000, 0.000000000000000000, 105.0000000000000142 ) ) ;
#164 = VERTEX_POINT ( 'NONE', #57 ) ;
#165 =( GEOMETRIC_REPRESENTATION_CONTEXT ( 3 ) GLOBAL_UNCERTAINTY_ASSIGNED_CONTEXT ( ( #33 ) ) GLOBAL_UNIT_ASSIGNED_CONTEXT ( ( #78, #15, #171 ) ) REPRESENTATION_CONTEXT ( 'NONE', 'WORKASPACE' ) );
#166 = CARTESIAN_POINT ( 'NONE',  ( 6.000000000000000888, 7.347880794884120722E-16, 5.000000000000000000 ) ) ;
#167 = FACE_OUTER_BOUND ( 'NONE', #46, .T. ) ;
#168 = DIRECTION ( 'NONE',  ( -1.000000000000000000, 0.000000000000000000, 0.000000000000000000 ) ) ;
#169 = DIRECTION ( 'NONE',  ( 1.000000000000000000, 0.000000000000000000, 0.000000000000000000 ) ) ;
#170 = COORDINATED_UNIVERSAL_TIME_OFFSET ( 1, 0, .AHEAD. ) ;
#171 =( NAMED_UNIT ( * ) SI_UNIT ( $, .STERADIAN. ) SOLID_ANGLE_UNIT ( ) );
#172 = COORDINATED_UNIVERSAL_TIME_OFFSET ( 1, 0, .AHEAD. ) ;
#173 = ADVANCED_FACE ( 'NONE', ( #17 ), #114, .T. ) ;
#174 = CARTESIAN_POINT ( 'NONE',  ( 3.750000000000000000, 4.592425496802573972E-16, 105.0000000000000142 ) ) ;
#175 = SHAPE_DEFINITION_REPRESENTATION ( #177, #31 ) ;
#176 = PERSON_AND_ORGANIZATION_ROLE ( 'creator' ) ;
#177 = PRODUCT_DEFINITION_SHAPE ( 'NONE', 'NONE',  #224 ) ;
#178 = APPLICATION_CONTEXT ( 'configuration controlled 3d designs of mechanical parts and assemblies' ) ;
#179 = CC_DESIGN_DATE_AND_TIME_ASSIGNMENT ( #148, #76, ( #224 ) ) ;
#180 = CC_DESIGN_DATE_AND_TIME_ASSIGNMENT ( #77, #252, ( #139 ) ) ;
#181 = LOCAL_TIME ( 19, 35, 17.00000000000000000, #156 ) ;
#182 = ORIENTED_EDGE ( 'NONE', *, *, #221, .T. ) ;
#183 = VERTEX_POINT ( 'NONE', #100 ) ;
#184 = DIRECTION ( 'NONE',  ( 0.000000000000000000, 0.000000000000000000, 1.000000000000000000 ) ) ;
#185 = CARTESIAN_POINT ( 'NONE',  ( 0.000000000000000000, 0.000000000000000000, 0.000000000000000000 ) ) ;
#186 = ORIENTED_EDGE ( 'NONE', *, *, #97, .T. ) ;
#187 = DIRECTION ( 'NONE',  ( 0.000000000000000000, 0.000000000000000000, 1.000000000000000000 ) ) ;
#188 = ORIENTED_EDGE ( 'NONE', *, *, #255, .T. ) ;
#189 = DIRECTION ( 'NONE',  ( 1.000000000000000000, 0.000000000000000000, 0.000000000000000000 ) ) ;
#190 = AXIS2_PLACEMENT_3D ( 'NONE', #135, #151, #147 ) ;
#191 = CALENDAR_DATE ( 2022, 7, 7 ) ;
#192 = CARTESIAN_POINT ( 'NONE',  ( -6.000000000000000888, 0.000000000000000000, 5.000000000000000000 ) ) ;
#193 = COORDINATED_UNIVERSAL_TIME_OFFSET ( 1, 0, .AHEAD. ) ;
#194 = CARTESIAN_POINT ( 'NONE',  ( 0.000000000000000000, 0.000000000000000000, 5.000000000000000000 ) ) ;
#195 = PERSON_AND_ORGANIZATION ( #253, #196 ) ;
#196 = ORGANIZATION ( 'NEURÈENÝ', 'NEURÈENÝ', '' ) ;
#197 = ORIENTED_EDGE ( 'NONE', *, *, #42, .T. ) ;
#198 = EDGE_CURVE ( 'NONE', #183, #83, #102, .T. ) ;
#199 = VECTOR ( 'NONE', #125, 1000.000000000000000 ) ;
#200 = VECTOR ( 'NONE', #75, 1000.000000000000000 ) ;
#201 = ORIENTED_EDGE ( 'NONE', *, *, #88, .F. ) ;
#202 = ORIENTED_EDGE ( 'NONE', *, *, #87, .F. ) ;
#203 = APPROVAL ( #20, 'NEURÈENÝ' ) ;
#204 = DIRECTION ( 'NONE',  ( -1.000000000000000000, 0.000000000000000000, 0.000000000000000000 ) ) ;
#205 = ORIENTED_EDGE ( 'NONE', *, *, #127, .T. ) ;
#206 = CARTESIAN_POINT ( 'NONE',  ( 0.000000000000000000, 0.000000000000000000, 0.000000000000000000 ) ) ;
#207 = AXIS2_PLACEMENT_3D ( 'NONE', #232, #129, #169 ) ;
#208 = CARTESIAN_POINT ( 'NONE',  ( -3.750000000000000000, 0.000000000000000000, 5.000000000000000000 ) ) ;
#209 = PERSON_AND_ORGANIZATION_ROLE ( 'design_supplier' ) ;
#210 = FACE_OUTER_BOUND ( 'NONE', #144, .T. ) ;
#211 = CALENDAR_DATE ( 2022, 7, 7 ) ;
#212 = CIRCLE ( 'NONE', #154, 6.000000000000000888 ) ;
#213 = LOCAL_TIME ( 19, 35, 17.00000000000000000, #170 ) ;
#214 = DIRECTION ( 'NONE',  ( -0.000000000000000000, -0.000000000000000000, -1.000000000000000000 ) ) ;
#215 = DATE_AND_TIME ( #18, #181 ) ;
#216 = CARTESIAN_POINT ( 'NONE',  ( 0.000000000000000000, 0.000000000000000000, 5.000000000000000000 ) ) ;
#217 = DATE_AND_TIME ( #191, #213 ) ;
#218 = CIRCLE ( 'NONE', #84, 6.000000000000000888 ) ;
#219 = ORIENTED_EDGE ( 'NONE', *, *, #86, .T. ) ;
#220 = AXIS2_PLACEMENT_3D ( 'NONE', #93, #24, #243 ) ;
#221 = EDGE_CURVE ( 'NONE', #183, #226, #54, .T. ) ;
#222 = DIRECTION ( 'NONE',  ( 1.000000000000000000, 0.000000000000000000, 0.000000000000000000 ) ) ;
#223 = CYLINDRICAL_SURFACE ( 'NONE', #110, 3.750000000000000000 ) ;
#224 = PRODUCT_DEFINITION ( 'NEZNÁMÝ', '', #85, #71 ) ;
#225 = EDGE_LOOP ( 'NONE', ( #142, #157, #197, #188 ) ) ;
#226 = VERTEX_POINT ( 'NONE', #248 ) ;
#227 = CC_DESIGN_APPROVAL ( #203, ( #85 ) ) ;
#228 = CC_DESIGN_PERSON_AND_ORGANIZATION_ASSIGNMENT ( #132, #134, ( #139 ) ) ;
#229 = CARTESIAN_POINT ( 'NONE',  ( 0.000000000000000000, 0.000000000000000000, 5.000000000000000000 ) ) ;
#230 = DATE_AND_TIME ( #237, #40 ) ;
#231 = ADVANCED_FACE ( 'NONE', ( #39, #155 ), #119, .T. ) ;
#232 = CARTESIAN_POINT ( 'NONE',  ( 0.000000000000000000, 0.000000000000000000, 105.0000000000000142 ) ) ;
#233 = SECURITY_CLASSIFICATION_LEVEL ( 'unclassified' ) ;
#234 = CC_DESIGN_PERSON_AND_ORGANIZATION_ASSIGNMENT ( #150, #130, ( #85 ) ) ;
#235 = CARTESIAN_POINT ( 'NONE',  ( 0.000000000000000000, 0.000000000000000000, 5.000000000000000000 ) ) ;
#236 = APPROVAL_STATUS ( 'not_yet_approved' ) ;
#237 = CALENDAR_DATE ( 2022, 7, 7 ) ;
#238 = EDGE_CURVE ( 'NONE', #89, #22, #3, .T. ) ;
#239 = AXIS2_PLACEMENT_3D ( 'NONE', #235, #19, #168 ) ;
#240 = DIRECTION ( 'NONE',  ( -1.000000000000000000, 0.000000000000000000, 0.000000000000000000 ) ) ;
#241 = CARTESIAN_POINT ( 'NONE',  ( -3.750000000000000000, 0.000000000000000000, 105.0000000000000142 ) ) ;
#242 = CC_DESIGN_APPROVAL ( #161, ( #139 ) ) ;
#243 = DIRECTION ( 'NONE',  ( 1.000000000000000000, 0.000000000000000000, 0.000000000000000000 ) ) ;
#244 = EDGE_LOOP ( 'NONE', ( #249, #182, #4, #50 ) ) ;
#245 = ADVANCED_FACE ( 'NONE', ( #210 ), #133, .T. ) ;
#246 = DIRECTION ( 'NONE',  ( 0.000000000000000000, 0.000000000000000000, 1.000000000000000000 ) ) ;
#247 = AXIS2_PLACEMENT_3D ( 'NONE', #229, #131, #32 ) ;
#248 = CARTESIAN_POINT ( 'NONE',  ( 3.750000000000000000, 4.592425496802573972E-16, 5.000000000000000000 ) ) ;
#249 = ORIENTED_EDGE ( 'NONE', *, *, #198, .F. ) ;
#250 = DIRECTION ( 'NONE',  ( -0.000000000000000000, -0.000000000000000000, -1.000000000000000000 ) ) ;
#251 = CALENDAR_DATE ( 2022, 7, 7 ) ;
#252 = DATE_TIME_ROLE ( 'classification_date' ) ;
#253 = PERSON ( 'NEURÈENÝ', 'NEURÈENÝ', 'NEURÈENÝ', ('NEURÈENÝ'), ('NEURÈENÝ'), ('NEURÈENÝ') ) ;
#254 = PERSON_AND_ORGANIZATION ( #253, #196 ) ;
#255 = EDGE_CURVE ( 'NONE', #96, #226, #160, .T. ) ;
ENDSEC;
END-ISO-10303-21;
