ISO-10303-21;
HEADER;
FILE_DESCRIPTION (( 'STEP AP203' ),
    '1' );
FILE_NAME ('e448.STEP',
    '2022-07-07T17:03:20',
    ( '' ),
    ( '' ),
    'SwSTEP 2.0',
    'SolidWorks 2019',
    '' );
FILE_SCHEMA (( 'CONFIG_CONTROL_DESIGN' ));
ENDSEC;

DATA;
#1 = CC_DESIGN_APPROVAL ( #229, ( #68 ) ) ;
#2 = PRODUCT_RELATED_PRODUCT_CATEGORY ( 'detail', '', ( #27 ) ) ;
#3 = DIRECTION ( 'NONE',  ( -0.000000000000000000, -0.000000000000000000, -1.000000000000000000 ) ) ;
#4 = CYLINDRICAL_SURFACE ( 'NONE', #188, 13.00000000000000178 ) ;
#5 = MECHANICAL_CONTEXT ( 'NONE', #67, 'mechanical' ) ;
#6 = AXIS2_PLACEMENT_3D ( 'NONE', #97, #86, #39 ) ;
#7 = ORIENTED_EDGE ( 'NONE', *, *, #91, .T. ) ;
#8 = CARTESIAN_POINT ( 'NONE',  ( 0.000000000000000000, 0.000000000000000000, 8.000000000000000000 ) ) ;
#9 = CARTESIAN_POINT ( 'NONE',  ( -13.00000000000000178, 0.000000000000000000, 8.000000000000000000 ) ) ;
#10 = CARTESIAN_POINT ( 'NONE',  ( -10.00000000000000178, 0.000000000000000000, 8.000000000000000000 ) ) ;
#11 = LOCAL_TIME ( 19, 3, 20.00000000000000000, #22 ) ;
#12 = ORIENTED_EDGE ( 'NONE', *, *, #72, .F. ) ;
#13 = ORIENTED_EDGE ( 'NONE', *, *, #185, .T. ) ;
#14 = DATE_AND_TIME ( #54, #226 ) ;
#15 = APPROVAL_STATUS ( 'not_yet_approved' ) ;
#16 = EDGE_CURVE ( 'NONE', #150, #213, #174, .T. ) ;
#17 =( NAMED_UNIT ( * ) PLANE_ANGLE_UNIT ( ) SI_UNIT ( $, .RADIAN. ) );
#18 = PERSON_AND_ORGANIZATION_ROLE ( 'classification_officer' ) ;
#19 = AXIS2_PLACEMENT_3D ( 'NONE', #172, #217, #223 ) ;
#20 = EDGE_CURVE ( 'NONE', #69, #213, #143, .T. ) ;
#21 = CARTESIAN_POINT ( 'NONE',  ( -10.00000000000000178, 0.000000000000000000, 508.0000000000000000 ) ) ;
#22 = COORDINATED_UNIVERSAL_TIME_OFFSET ( 1, 0, .AHEAD. ) ;
#23 = CARTESIAN_POINT ( 'NONE',  ( 13.00000000000000178, 1.592040838891559293E-15, 8.000000000000000000 ) ) ;
#24 = CARTESIAN_POINT ( 'NONE',  ( 0.000000000000000000, 0.000000000000000000, 0.000000000000000000 ) ) ;
#25 = CARTESIAN_POINT ( 'NONE',  ( 13.00000000000000178, 1.592040838891559293E-15, 8.000000000000000000 ) ) ;
#26 = CC_DESIGN_PERSON_AND_ORGANIZATION_ASSIGNMENT ( #201, #18, ( #244 ) ) ;
#27 = PRODUCT ( 'e448', 'e448', '', ( #5 ) ) ;
#28 = CARTESIAN_POINT ( 'NONE',  ( 0.000000000000000000, 0.000000000000000000, 508.0000000000000000 ) ) ;
#29 = DIRECTION ( 'NONE',  ( 1.000000000000000000, 0.000000000000000000, 0.000000000000000000 ) ) ;
#30 = ADVANCED_BREP_SHAPE_REPRESENTATION ( 'e448', ( #109, #46 ), #77 ) ;
#31 = ORIENTED_EDGE ( 'NONE', *, *, #47, .T. ) ;
#32 = VERTEX_POINT ( 'NONE', #40 ) ;
#33 = COORDINATED_UNIVERSAL_TIME_OFFSET ( 1, 0, .AHEAD. ) ;
#34 = ADVANCED_FACE ( 'NONE', ( #203 ), #43, .T. ) ;
#35 = PERSON_AND_ORGANIZATION ( #129, #153 ) ;
#36 = CALENDAR_DATE ( 2022, 7, 7 ) ;
#37 = CALENDAR_DATE ( 2022, 7, 7 ) ;
#38 = DATE_AND_TIME ( #137, #93 ) ;
#39 = DIRECTION ( 'NONE',  ( 1.000000000000000000, 0.000000000000000000, 0.000000000000000000 ) ) ;
#40 = CARTESIAN_POINT ( 'NONE',  ( 10.00000000000000178, 1.224646799147353454E-15, 508.0000000000000000 ) ) ;
#41 = DIRECTION ( 'NONE',  ( 0.000000000000000000, 0.000000000000000000, 1.000000000000000000 ) ) ;
#42 = PERSON_AND_ORGANIZATION_ROLE ( 'creator' ) ;
#43 = CYLINDRICAL_SURFACE ( 'NONE', #206, 10.00000000000000178 ) ;
#44 = LINE ( 'NONE', #21, #209 ) ;
#45 = FACE_OUTER_BOUND ( 'NONE', #49, .T. ) ;
#46 = AXIS2_PLACEMENT_3D ( 'NONE', #136, #120, #214 ) ;
#47 = EDGE_CURVE ( 'NONE', #69, #114, #48, .T. ) ;
#48 = CIRCLE ( 'NONE', #162, 13.00000000000000178 ) ;
#49 = EDGE_LOOP ( 'NONE', ( #176, #13, #182, #70 ) ) ;
#50 = ORIENTED_EDGE ( 'NONE', *, *, #253, .T. ) ;
#51 = SHAPE_DEFINITION_REPRESENTATION ( #62, #30 ) ;
#52 = APPLICATION_PROTOCOL_DEFINITION ( 'international standard', 'config_control_design', 1994, #67 ) ;
#53 = PERSON_AND_ORGANIZATION ( #129, #153 ) ;
#54 = CALENDAR_DATE ( 2022, 7, 7 ) ;
#55 = CYLINDRICAL_SURFACE ( 'NONE', #115, 13.00000000000000178 ) ;
#56 = EDGE_CURVE ( 'NONE', #32, #84, #76, .T. ) ;
#57 = FACE_OUTER_BOUND ( 'NONE', #246, .T. ) ;
#58 =( LENGTH_UNIT ( ) NAMED_UNIT ( * ) SI_UNIT ( .MILLI., .METRE. ) );
#59 = CC_DESIGN_APPROVAL ( #79, ( #199 ) ) ;
#60 = DIRECTION ( 'NONE',  ( -0.000000000000000000, -0.000000000000000000, -1.000000000000000000 ) ) ;
#61 = CARTESIAN_POINT ( 'NONE',  ( 0.000000000000000000, 0.000000000000000000, 508.0000000000000000 ) ) ;
#62 = PRODUCT_DEFINITION_SHAPE ( 'NONE', 'NONE',  #68 ) ;
#63 = DIRECTION ( 'NONE',  ( 0.000000000000000000, 0.000000000000000000, 1.000000000000000000 ) ) ;
#64 = CLOSED_SHELL ( 'NONE', ( #235, #191, #138, #149, #113, #34, #105 ) ) ;
#65 = DIRECTION ( 'NONE',  ( 1.000000000000000000, 0.000000000000000000, -0.000000000000000000 ) ) ;
#66 = CIRCLE ( 'NONE', #102, 13.00000000000000178 ) ;
#67 = APPLICATION_CONTEXT ( 'configuration controlled 3d designs of mechanical parts and assemblies' ) ;
#68 = PRODUCT_DEFINITION ( 'NEZNÁMÝ', '', #199, #141 ) ;
#69 = VERTEX_POINT ( 'NONE', #23 ) ;
#70 = ORIENTED_EDGE ( 'NONE', *, *, #159, .F. ) ;
#71 = COORDINATED_UNIVERSAL_TIME_OFFSET ( 1, 0, .AHEAD. ) ;
#72 = EDGE_CURVE ( 'NONE', #228, #195, #151, .T. ) ;
#73 = PERSON_AND_ORGANIZATION ( #129, #153 ) ;
#74 = DATE_AND_TIME ( #36, #131 ) ;
#75 = APPROVAL_ROLE ( '' ) ;
#76 = CIRCLE ( 'NONE', #106, 10.00000000000000178 ) ;
#77 =( GEOMETRIC_REPRESENTATION_CONTEXT ( 3 ) GLOBAL_UNCERTAINTY_ASSIGNED_CONTEXT ( ( #173 ) ) GLOBAL_UNIT_ASSIGNED_CONTEXT ( ( #58, #17, #124 ) ) REPRESENTATION_CONTEXT ( 'NONE', 'WORKASPACE' ) );
#78 = DIRECTION ( 'NONE',  ( 1.000000000000000000, 0.000000000000000000, -0.000000000000000000 ) ) ;
#79 = APPROVAL ( #15, 'NEURÈENÝ' ) ;
#80 = PLANE ( 'NONE',  #19 ) ;
#81 = CALENDAR_DATE ( 2022, 7, 7 ) ;
#82 = CARTESIAN_POINT ( 'NONE',  ( 0.000000000000000000, 0.000000000000000000, 508.0000000000000000 ) ) ;
#83 = CARTESIAN_POINT ( 'NONE',  ( 10.00000000000000178, 1.224646799147353454E-15, 8.000000000000000000 ) ) ;
#84 = VERTEX_POINT ( 'NONE', #236 ) ;
#85 = DIRECTION ( 'NONE',  ( -0.000000000000000000, -0.000000000000000000, -1.000000000000000000 ) ) ;
#86 = DIRECTION ( 'NONE',  ( 0.000000000000000000, 0.000000000000000000, 1.000000000000000000 ) ) ;
#87 = EDGE_LOOP ( 'NONE', ( #187, #133, #156, #177 ) ) ;
#88 = ORIENTED_EDGE ( 'NONE', *, *, #20, .F. ) ;
#89 = PERSON_AND_ORGANIZATION ( #129, #153 ) ;
#90 = APPROVAL_ROLE ( '' ) ;
#91 = EDGE_CURVE ( 'NONE', #84, #32, #255, .T. ) ;
#92 = AXIS2_PLACEMENT_3D ( 'NONE', #145, #202, #65 ) ;
#93 = LOCAL_TIME ( 19, 3, 20.00000000000000000, #232 ) ;
#94 = PLANE ( 'NONE',  #243 ) ;
#95 = DIRECTION ( 'NONE',  ( -0.000000000000000000, -0.000000000000000000, -1.000000000000000000 ) ) ;
#96 = PERSON_AND_ORGANIZATION ( #129, #153 ) ;
#97 = CARTESIAN_POINT ( 'NONE',  ( 0.000000000000000000, 0.000000000000000000, 8.000000000000000000 ) ) ;
#98 = ORIENTED_EDGE ( 'NONE', *, *, #253, .F. ) ;
#99 = CARTESIAN_POINT ( 'NONE',  ( -13.00000000000000178, 0.000000000000000000, 0.000000000000000000 ) ) ;
#100 = DIRECTION ( 'NONE',  ( 0.000000000000000000, 0.000000000000000000, 1.000000000000000000 ) ) ;
#101 = CARTESIAN_POINT ( 'NONE',  ( 0.000000000000000000, 0.000000000000000000, 8.000000000000000000 ) ) ;
#102 = AXIS2_PLACEMENT_3D ( 'NONE', #250, #221, #139 ) ;
#103 = CARTESIAN_POINT ( 'NONE',  ( 10.00000000000000178, 1.224646799147353454E-15, 508.0000000000000000 ) ) ;
#104 = CIRCLE ( 'NONE', #118, 13.00000000000000178 ) ;
#105 = ADVANCED_FACE ( 'NONE', ( #190 ), #119, .T. ) ;
#106 = AXIS2_PLACEMENT_3D ( 'NONE', #82, #63, #218 ) ;
#107 = ORIENTED_EDGE ( 'NONE', *, *, #159, .T. ) ;
#108 = CIRCLE ( 'NONE', #180, 10.00000000000000178 ) ;
#109 = MANIFOLD_SOLID_BREP ( 'Pøidat vysunutím3', #64 ) ;
#110 = EDGE_LOOP ( 'NONE', ( #193, #12 ) ) ;
#111 = DATE_TIME_ROLE ( 'classification_date' ) ;
#112 = PERSON_AND_ORGANIZATION_ROLE ( 'creator' ) ;
#113 = ADVANCED_FACE ( 'NONE', ( #57 ), #94, .F. ) ;
#114 = VERTEX_POINT ( 'NONE', #164 ) ;
#115 = AXIS2_PLACEMENT_3D ( 'NONE', #8, #85, #152 ) ;
#116 = CC_DESIGN_DATE_AND_TIME_ASSIGNMENT ( #38, #198, ( #68 ) ) ;
#117 = APPLICATION_CONTEXT ( 'configuration controlled 3d designs of mechanical parts and assemblies' ) ;
#118 = AXIS2_PLACEMENT_3D ( 'NONE', #24, #186, #225 ) ;
#119 = PLANE ( 'NONE',  #92 ) ;
#120 = DIRECTION ( 'NONE',  ( 0.000000000000000000, 0.000000000000000000, 1.000000000000000000 ) ) ;
#121 = ORIENTED_EDGE ( 'NONE', *, *, #16, .F. ) ;
#122 = EDGE_LOOP ( 'NONE', ( #146, #224, #107, #230 ) ) ;
#123 = DIRECTION ( 'NONE',  ( -1.000000000000000000, 0.000000000000000000, 0.000000000000000000 ) ) ;
#124 =( NAMED_UNIT ( * ) SI_UNIT ( $, .STERADIAN. ) SOLID_ANGLE_UNIT ( ) );
#125 = DIRECTION ( 'NONE',  ( -0.000000000000000000, -0.000000000000000000, -1.000000000000000000 ) ) ;
#126 = FACE_OUTER_BOUND ( 'NONE', #87, .T. ) ;
#127 = DIRECTION ( 'NONE',  ( -1.000000000000000000, 0.000000000000000000, 0.000000000000000000 ) ) ;
#128 = CC_DESIGN_APPROVAL ( #169, ( #244 ) ) ;
#129 = PERSON ( 'NEURÈENÝ', 'NEURÈENÝ', 'NEURÈENÝ', ('NEURÈENÝ'), ('NEURÈENÝ'), ('NEURÈENÝ') ) ;
#130 = EDGE_CURVE ( 'NONE', #114, #150, #220, .T. ) ;
#131 = LOCAL_TIME ( 19, 3, 20.00000000000000000, #238 ) ;
#132 = VECTOR ( 'NONE', #3, 1000.000000000000000 ) ;
#133 = ORIENTED_EDGE ( 'NONE', *, *, #20, .T. ) ;
#134 = ORIENTED_EDGE ( 'NONE', *, *, #130, .T. ) ;
#135 = AXIS2_PLACEMENT_3D ( 'NONE', #28, #189, #127 ) ;
#136 = CARTESIAN_POINT ( 'NONE',  ( 0.000000000000000000, 0.000000000000000000, 0.000000000000000000 ) ) ;
#137 = CALENDAR_DATE ( 2022, 7, 7 ) ;
#138 = ADVANCED_FACE ( 'NONE', ( #242 ), #55, .T. ) ;
#139 = DIRECTION ( 'NONE',  ( 1.000000000000000000, 0.000000000000000000, 0.000000000000000000 ) ) ;
#140 = APPROVAL_PERSON_ORGANIZATION ( #73, #229, #90 ) ;
#141 = DESIGN_CONTEXT ( 'detailed design', #117, 'design' ) ;
#142 = FACE_OUTER_BOUND ( 'NONE', #247, .T. ) ;
#143 = LINE ( 'NONE', #25, #155 ) ;
#144 = CC_DESIGN_SECURITY_CLASSIFICATION ( #244, ( #199 ) ) ;
#145 = CARTESIAN_POINT ( 'NONE',  ( 0.000000000000000000, 0.000000000000000000, 508.0000000000000000 ) ) ;
#146 = ORIENTED_EDGE ( 'NONE', *, *, #185, .F. ) ;
#147 = DIRECTION ( 'NONE',  ( 0.000000000000000000, 0.000000000000000000, 1.000000000000000000 ) ) ;
#148 = CARTESIAN_POINT ( 'NONE',  ( 0.000000000000000000, 0.000000000000000000, 508.0000000000000000 ) ) ;
#149 = ADVANCED_FACE ( 'NONE', ( #183, #142 ), #80, .T. ) ;
#150 = VERTEX_POINT ( 'NONE', #99 ) ;
#151 = CIRCLE ( 'NONE', #6, 10.00000000000000178 ) ;
#152 = DIRECTION ( 'NONE',  ( -1.000000000000000000, 0.000000000000000000, 0.000000000000000000 ) ) ;
#153 = ORGANIZATION ( 'NEURÈENÝ', 'NEURÈENÝ', '' ) ;
#154 = ORIENTED_EDGE ( 'NONE', *, *, #216, .F. ) ;
#155 = VECTOR ( 'NONE', #60, 1000.000000000000000 ) ;
#156 = ORIENTED_EDGE ( 'NONE', *, *, #216, .T. ) ;
#157 = APPROVAL_DATE_TIME ( #14, #169 ) ;
#158 = APPROVAL_DATE_TIME ( #254, #229 ) ;
#159 = EDGE_CURVE ( 'NONE', #84, #195, #44, .T. ) ;
#160 = CC_DESIGN_DATE_AND_TIME_ASSIGNMENT ( #215, #111, ( #244 ) ) ;
#161 = APPROVAL_DATE_TIME ( #74, #79 ) ;
#162 = AXIS2_PLACEMENT_3D ( 'NONE', #171, #100, #184 ) ;
#163 = SECURITY_CLASSIFICATION_LEVEL ( 'unclassified' ) ;
#164 = CARTESIAN_POINT ( 'NONE',  ( -13.00000000000000178, 0.000000000000000000, 8.000000000000000000 ) ) ;
#165 = DIRECTION ( 'NONE',  ( -0.000000000000000000, -0.000000000000000000, -1.000000000000000000 ) ) ;
#166 = PERSON_AND_ORGANIZATION_ROLE ( 'design_owner' ) ;
#167 = ORIENTED_EDGE ( 'NONE', *, *, #16, .T. ) ;
#168 = APPROVAL_PERSON_ORGANIZATION ( #96, #79, #75 ) ;
#169 = APPROVAL ( #197, 'NEURÈENÝ' ) ;
#170 = CARTESIAN_POINT ( 'NONE',  ( 0.000000000000000000, 0.000000000000000000, 8.000000000000000000 ) ) ;
#171 = CARTESIAN_POINT ( 'NONE',  ( 0.000000000000000000, 0.000000000000000000, 8.000000000000000000 ) ) ;
#172 = CARTESIAN_POINT ( 'NONE',  ( 0.000000000000000000, 0.000000000000000000, 8.000000000000000000 ) ) ;
#173 = UNCERTAINTY_MEASURE_WITH_UNIT (LENGTH_MEASURE( 1.000000000000000082E-05 ), #58, 'distance_accuracy_value', 'NONE');
#174 = CIRCLE ( 'NONE', #179, 13.00000000000000178 ) ;
#175 = VECTOR ( 'NONE', #165, 1000.000000000000000 ) ;
#176 = ORIENTED_EDGE ( 'NONE', *, *, #56, .F. ) ;
#177 = ORIENTED_EDGE ( 'NONE', *, *, #130, .F. ) ;
#178 = APPROVAL_STATUS ( 'not_yet_approved' ) ;
#179 = AXIS2_PLACEMENT_3D ( 'NONE', #239, #222, #241 ) ;
#180 = AXIS2_PLACEMENT_3D ( 'NONE', #170, #208, #233 ) ;
#181 = CARTESIAN_POINT ( 'NONE',  ( 0.000000000000000000, 0.000000000000000000, 0.000000000000000000 ) ) ;
#182 = ORIENTED_EDGE ( 'NONE', *, *, #72, .T. ) ;
#183 = FACE_BOUND ( 'NONE', #110, .T. ) ;
#184 = DIRECTION ( 'NONE',  ( 1.000000000000000000, 0.000000000000000000, 0.000000000000000000 ) ) ;
#185 = EDGE_CURVE ( 'NONE', #32, #228, #240, .T. ) ;
#186 = DIRECTION ( 'NONE',  ( 0.000000000000000000, 0.000000000000000000, 1.000000000000000000 ) ) ;
#187 = ORIENTED_EDGE ( 'NONE', *, *, #47, .F. ) ;
#188 = AXIS2_PLACEMENT_3D ( 'NONE', #101, #237, #123 ) ;
#189 = DIRECTION ( 'NONE',  ( -0.000000000000000000, -0.000000000000000000, -1.000000000000000000 ) ) ;
#190 = FACE_OUTER_BOUND ( 'NONE', #249, .T. ) ;
#191 = ADVANCED_FACE ( 'NONE', ( #126 ), #4, .T. ) ;
#192 = CC_DESIGN_PERSON_AND_ORGANIZATION_ASSIGNMENT ( #53, #112, ( #199 ) ) ;
#193 = ORIENTED_EDGE ( 'NONE', *, *, #245, .F. ) ;
#194 = APPROVAL_PERSON_ORGANIZATION ( #231, #169, #248 ) ;
#195 = VERTEX_POINT ( 'NONE', #10 ) ;
#196 = CC_DESIGN_PERSON_AND_ORGANIZATION_ASSIGNMENT ( #89, #166, ( #27 ) ) ;
#197 = APPROVAL_STATUS ( 'not_yet_approved' ) ;
#198 = DATE_TIME_ROLE ( 'creation_date' ) ;
#199 = PRODUCT_DEFINITION_FORMATION_WITH_SPECIFIED_SOURCE ( 'LIBOVOLNÝ', '', #27, .NOT_KNOWN. ) ;
#200 = PERSON_AND_ORGANIZATION ( #129, #153 ) ;
#201 = PERSON_AND_ORGANIZATION ( #129, #153 ) ;
#202 = DIRECTION ( 'NONE',  ( 0.000000000000000000, 0.000000000000000000, 1.000000000000000000 ) ) ;
#203 = FACE_OUTER_BOUND ( 'NONE', #122, .T. ) ;
#204 = CARTESIAN_POINT ( 'NONE',  ( 13.00000000000000178, 1.592040838891559293E-15, 0.000000000000000000 ) ) ;
#205 = DIRECTION ( 'NONE',  ( -1.000000000000000000, 0.000000000000000000, 0.000000000000000000 ) ) ;
#206 = AXIS2_PLACEMENT_3D ( 'NONE', #148, #125, #205 ) ;
#207 = CYLINDRICAL_SURFACE ( 'NONE', #135, 10.00000000000000178 ) ;
#208 = DIRECTION ( 'NONE',  ( 0.000000000000000000, 0.000000000000000000, 1.000000000000000000 ) ) ;
#209 = VECTOR ( 'NONE', #95, 1000.000000000000000 ) ;
#210 = CC_DESIGN_PERSON_AND_ORGANIZATION_ASSIGNMENT ( #200, #234, ( #199 ) ) ;
#211 = AXIS2_PLACEMENT_3D ( 'NONE', #61, #147, #29 ) ;
#212 = ORIENTED_EDGE ( 'NONE', *, *, #56, .T. ) ;
#213 = VERTEX_POINT ( 'NONE', #204 ) ;
#214 = DIRECTION ( 'NONE',  ( 1.000000000000000000, 0.000000000000000000, 0.000000000000000000 ) ) ;
#215 = DATE_AND_TIME ( #37, #251 ) ;
#216 = EDGE_CURVE ( 'NONE', #213, #150, #104, .T. ) ;
#217 = DIRECTION ( 'NONE',  ( 0.000000000000000000, 0.000000000000000000, 1.000000000000000000 ) ) ;
#218 = DIRECTION ( 'NONE',  ( 1.000000000000000000, 0.000000000000000000, 0.000000000000000000 ) ) ;
#219 = EDGE_LOOP ( 'NONE', ( #88, #98, #134, #167 ) ) ;
#220 = LINE ( 'NONE', #9, #132 ) ;
#221 = DIRECTION ( 'NONE',  ( 0.000000000000000000, 0.000000000000000000, 1.000000000000000000 ) ) ;
#222 = DIRECTION ( 'NONE',  ( 0.000000000000000000, 0.000000000000000000, 1.000000000000000000 ) ) ;
#223 = DIRECTION ( 'NONE',  ( 1.000000000000000000, 0.000000000000000000, -0.000000000000000000 ) ) ;
#224 = ORIENTED_EDGE ( 'NONE', *, *, #91, .F. ) ;
#225 = DIRECTION ( 'NONE',  ( 1.000000000000000000, 0.000000000000000000, 0.000000000000000000 ) ) ;
#226 = LOCAL_TIME ( 19, 3, 20.00000000000000000, #71 ) ;
#227 = CC_DESIGN_PERSON_AND_ORGANIZATION_ASSIGNMENT ( #35, #42, ( #68 ) ) ;
#228 = VERTEX_POINT ( 'NONE', #83 ) ;
#229 = APPROVAL ( #178, 'NEURÈENÝ' ) ;
#230 = ORIENTED_EDGE ( 'NONE', *, *, #245, .T. ) ;
#231 = PERSON_AND_ORGANIZATION ( #129, #153 ) ;
#232 = COORDINATED_UNIVERSAL_TIME_OFFSET ( 1, 0, .AHEAD. ) ;
#233 = DIRECTION ( 'NONE',  ( 1.000000000000000000, 0.000000000000000000, 0.000000000000000000 ) ) ;
#234 = PERSON_AND_ORGANIZATION_ROLE ( 'design_supplier' ) ;
#235 = ADVANCED_FACE ( 'NONE', ( #45 ), #207, .T. ) ;
#236 = CARTESIAN_POINT ( 'NONE',  ( -10.00000000000000178, 0.000000000000000000, 508.0000000000000000 ) ) ;
#237 = DIRECTION ( 'NONE',  ( -0.000000000000000000, -0.000000000000000000, -1.000000000000000000 ) ) ;
#238 = COORDINATED_UNIVERSAL_TIME_OFFSET ( 1, 0, .AHEAD. ) ;
#239 = CARTESIAN_POINT ( 'NONE',  ( 0.000000000000000000, 0.000000000000000000, 0.000000000000000000 ) ) ;
#240 = LINE ( 'NONE', #103, #175 ) ;
#241 = DIRECTION ( 'NONE',  ( 1.000000000000000000, 0.000000000000000000, 0.000000000000000000 ) ) ;
#242 = FACE_OUTER_BOUND ( 'NONE', #219, .T. ) ;
#243 = AXIS2_PLACEMENT_3D ( 'NONE', #181, #41, #78 ) ;
#244 = SECURITY_CLASSIFICATION ( '', '', #163 ) ;
#245 = EDGE_CURVE ( 'NONE', #195, #228, #108, .T. ) ;
#246 = EDGE_LOOP ( 'NONE', ( #121, #154 ) ) ;
#247 = EDGE_LOOP ( 'NONE', ( #50, #31 ) ) ;
#248 = APPROVAL_ROLE ( '' ) ;
#249 = EDGE_LOOP ( 'NONE', ( #7, #212 ) ) ;
#250 = CARTESIAN_POINT ( 'NONE',  ( 0.000000000000000000, 0.000000000000000000, 8.000000000000000000 ) ) ;
#251 = LOCAL_TIME ( 19, 3, 20.00000000000000000, #33 ) ;
#252 = APPLICATION_PROTOCOL_DEFINITION ( 'international standard', 'config_control_design', 1994, #117 ) ;
#253 = EDGE_CURVE ( 'NONE', #114, #69, #66, .T. ) ;
#254 = DATE_AND_TIME ( #81, #11 ) ;
#255 = CIRCLE ( 'NONE', #211, 10.00000000000000178 ) ;
ENDSEC;
END-ISO-10303-21;
