ISO-10303-21;
HEADER;
FILE_DESCRIPTION (( 'STEP AP203' ),
    '1' );
FILE_NAME ('8644.STEP',
    '2022-07-07T17:08:36',
    ( '' ),
    ( '' ),
    'SwSTEP 2.0',
    'SolidWorks 2019',
    '' );
FILE_SCHEMA (( 'CONFIG_CONTROL_DESIGN' ));
ENDSEC;

DATA;
#1 = FACE_OUTER_BOUND ( 'NONE', #231, .T. ) ;
#2 = LOCAL_TIME ( 19, 8, 36.00000000000000000, #62 ) ;
#3 = PLANE ( 'NONE',  #153 ) ;
#4 = DATE_AND_TIME ( #214, #228 ) ;
#5 = CARTESIAN_POINT ( 'NONE',  ( 0.000000000000000000, 0.000000000000000000, 407.0000000000000000 ) ) ;
#6 = DIRECTION ( 'NONE',  ( 0.000000000000000000, 0.000000000000000000, 1.000000000000000000 ) ) ;
#7 = COORDINATED_UNIVERSAL_TIME_OFFSET ( 1, 0, .AHEAD. ) ;
#8 = DIRECTION ( 'NONE',  ( -0.000000000000000000, -0.000000000000000000, -1.000000000000000000 ) ) ;
#9 = CC_DESIGN_DATE_AND_TIME_ASSIGNMENT ( #140, #11, ( #150 ) ) ;
#10 = CARTESIAN_POINT ( 'NONE',  ( 11.00000000000000000, 1.347111479062088405E-15, 7.000000000000000000 ) ) ;
#11 = DATE_TIME_ROLE ( 'classification_date' ) ;
#12 = EDGE_LOOP ( 'NONE', ( #115, #171 ) ) ;
#13 =( GEOMETRIC_REPRESENTATION_CONTEXT ( 3 ) GLOBAL_UNCERTAINTY_ASSIGNED_CONTEXT ( ( #111 ) ) GLOBAL_UNIT_ASSIGNED_CONTEXT ( ( #23, #88, #201 ) ) REPRESENTATION_CONTEXT ( 'NONE', 'WORKASPACE' ) );
#14 = VERTEX_POINT ( 'NONE', #79 ) ;
#15 = PERSON ( 'NEURÈENÝ', 'NEURÈENÝ', 'NEURÈENÝ', ('NEURÈENÝ'), ('NEURÈENÝ'), ('NEURÈENÝ') ) ;
#16 = CC_DESIGN_PERSON_AND_ORGANIZATION_ASSIGNMENT ( #92, #226, ( #179 ) ) ;
#17 = DIRECTION ( 'NONE',  ( 1.000000000000000000, 0.000000000000000000, 0.000000000000000000 ) ) ;
#18 = CARTESIAN_POINT ( 'NONE',  ( 0.000000000000000000, 0.000000000000000000, 7.000000000000000000 ) ) ;
#19 = DIRECTION ( 'NONE',  ( 0.000000000000000000, 0.000000000000000000, 1.000000000000000000 ) ) ;
#20 = PERSON_AND_ORGANIZATION_ROLE ( 'classification_officer' ) ;
#21 = DIRECTION ( 'NONE',  ( 0.000000000000000000, 0.000000000000000000, 1.000000000000000000 ) ) ;
#22 = CIRCLE ( 'NONE', #220, 7.750000000000000000 ) ;
#23 =( LENGTH_UNIT ( ) NAMED_UNIT ( * ) SI_UNIT ( .MILLI., .METRE. ) );
#24 = COORDINATED_UNIVERSAL_TIME_OFFSET ( 1, 0, .AHEAD. ) ;
#25 = DIRECTION ( 'NONE',  ( 1.000000000000000000, 0.000000000000000000, 0.000000000000000000 ) ) ;
#26 = APPROVAL_DATE_TIME ( #126, #57 ) ;
#27 = CC_DESIGN_PERSON_AND_ORGANIZATION_ASSIGNMENT ( #168, #20, ( #150 ) ) ;
#28 = PERSON_AND_ORGANIZATION ( #15, #251 ) ;
#29 = ORIENTED_EDGE ( 'NONE', *, *, #194, .T. ) ;
#30 = ORIENTED_EDGE ( 'NONE', *, *, #55, .T. ) ;
#31 = EDGE_CURVE ( 'NONE', #14, #147, #160, .T. ) ;
#32 = AXIS2_PLACEMENT_3D ( 'NONE', #137, #218, #213 ) ;
#33 = ORIENTED_EDGE ( 'NONE', *, *, #194, .F. ) ;
#34 = CIRCLE ( 'NONE', #191, 7.750000000000000000 ) ;
#35 = EDGE_LOOP ( 'NONE', ( #130, #249, #118, #240 ) ) ;
#36 = ADVANCED_FACE ( 'NONE', ( #1 ), #46, .F. ) ;
#37 = PLANE ( 'NONE',  #49 ) ;
#38 = DIRECTION ( 'NONE',  ( -1.000000000000000000, 0.000000000000000000, 0.000000000000000000 ) ) ;
#39 = FACE_BOUND ( 'NONE', #12, .T. ) ;
#40 = LOCAL_TIME ( 19, 8, 36.00000000000000000, #24 ) ;
#41 = COORDINATED_UNIVERSAL_TIME_OFFSET ( 1, 0, .AHEAD. ) ;
#42 = CARTESIAN_POINT ( 'NONE',  ( -7.750000000000000000, 0.000000000000000000, 7.000000000000000000 ) ) ;
#43 = EDGE_CURVE ( 'NONE', #190, #14, #159, .T. ) ;
#44 = DIRECTION ( 'NONE',  ( 1.000000000000000000, 0.000000000000000000, 0.000000000000000000 ) ) ;
#45 = COORDINATED_UNIVERSAL_TIME_OFFSET ( 1, 0, .AHEAD. ) ;
#46 = PLANE ( 'NONE',  #175 ) ;
#47 = CYLINDRICAL_SURFACE ( 'NONE', #53, 7.750000000000000000 ) ;
#48 = PERSON_AND_ORGANIZATION ( #15, #251 ) ;
#49 = AXIS2_PLACEMENT_3D ( 'NONE', #98, #120, #192 ) ;
#50 = PRODUCT_DEFINITION ( 'NEZNÁMÝ', '', #114, #71 ) ;
#51 = CARTESIAN_POINT ( 'NONE',  ( 0.000000000000000000, 0.000000000000000000, 7.000000000000000000 ) ) ;
#52 = AXIS2_PLACEMENT_3D ( 'NONE', #5, #8, #38 ) ;
#53 = AXIS2_PLACEMENT_3D ( 'NONE', #103, #180, #241 ) ;
#54 = ORIENTED_EDGE ( 'NONE', *, *, #252, .F. ) ;
#55 = EDGE_CURVE ( 'NONE', #229, #247, #248, .T. ) ;
#56 = EDGE_LOOP ( 'NONE', ( #33, #253, #205, #76 ) ) ;
#57 = APPROVAL ( #136, 'NEURÈENÝ' ) ;
#58 = AXIS2_PLACEMENT_3D ( 'NONE', #146, #67, #25 ) ;
#59 = EDGE_LOOP ( 'NONE', ( #30, #29 ) ) ;
#60 = DIRECTION ( 'NONE',  ( -0.000000000000000000, -0.000000000000000000, -1.000000000000000000 ) ) ;
#61 = ADVANCED_FACE ( 'NONE', ( #215 ), #196, .T. ) ;
#62 = COORDINATED_UNIVERSAL_TIME_OFFSET ( 1, 0, .AHEAD. ) ;
#63 = FACE_OUTER_BOUND ( 'NONE', #59, .T. ) ;
#64 = DIRECTION ( 'NONE',  ( -0.000000000000000000, -0.000000000000000000, -1.000000000000000000 ) ) ;
#65 = SECURITY_CLASSIFICATION_LEVEL ( 'unclassified' ) ;
#66 = CARTESIAN_POINT ( 'NONE',  ( 0.000000000000000000, 0.000000000000000000, 7.000000000000000000 ) ) ;
#67 = DIRECTION ( 'NONE',  ( 0.000000000000000000, 0.000000000000000000, 1.000000000000000000 ) ) ;
#68 = APPLICATION_PROTOCOL_DEFINITION ( 'international standard', 'config_control_design', 1994, #117 ) ;
#69 = APPROVAL_ROLE ( '' ) ;
#70 = CC_DESIGN_APPROVAL ( #57, ( #150 ) ) ;
#71 = DESIGN_CONTEXT ( 'detailed design', #127, 'design' ) ;
#72 = VERTEX_POINT ( 'NONE', #42 ) ;
#73 = VECTOR ( 'NONE', #102, 1000.000000000000000 ) ;
#74 = VERTEX_POINT ( 'NONE', #158 ) ;
#75 = CIRCLE ( 'NONE', #58, 11.00000000000000000 ) ;
#76 = ORIENTED_EDGE ( 'NONE', *, *, #219, .F. ) ;
#77 = ORIENTED_EDGE ( 'NONE', *, *, #188, .F. ) ;
#78 = EDGE_CURVE ( 'NONE', #147, #14, #106, .T. ) ;
#79 = CARTESIAN_POINT ( 'NONE',  ( -11.00000000000000000, 0.000000000000000000, 0.000000000000000000 ) ) ;
#80 = CARTESIAN_POINT ( 'NONE',  ( 0.000000000000000000, 0.000000000000000000, 7.000000000000000000 ) ) ;
#81 = DIRECTION ( 'NONE',  ( 0.000000000000000000, 0.000000000000000000, 1.000000000000000000 ) ) ;
#82 = AXIS2_PLACEMENT_3D ( 'NONE', #18, #125, #164 ) ;
#83 = AXIS2_PLACEMENT_3D ( 'NONE', #237, #176, #141 ) ;
#84 = DIRECTION ( 'NONE',  ( -0.000000000000000000, -0.000000000000000000, -1.000000000000000000 ) ) ;
#85 = CALENDAR_DATE ( 2022, 7, 7 ) ;
#86 = DIRECTION ( 'NONE',  ( -1.000000000000000000, 0.000000000000000000, 0.000000000000000000 ) ) ;
#87 = LOCAL_TIME ( 19, 8, 36.00000000000000000, #41 ) ;
#88 =( NAMED_UNIT ( * ) PLANE_ANGLE_UNIT ( ) SI_UNIT ( $, .RADIAN. ) );
#89 = EDGE_CURVE ( 'NONE', #72, #74, #22, .T. ) ;
#90 = CARTESIAN_POINT ( 'NONE',  ( -11.00000000000000000, 0.000000000000000000, 7.000000000000000000 ) ) ;
#91 = PERSON_AND_ORGANIZATION ( #15, #251 ) ;
#92 = PERSON_AND_ORGANIZATION ( #15, #251 ) ;
#93 = DIRECTION ( 'NONE',  ( 1.000000000000000000, 0.000000000000000000, 0.000000000000000000 ) ) ;
#94 = ORIENTED_EDGE ( 'NONE', *, *, #43, .T. ) ;
#95 = VECTOR ( 'NONE', #84, 1000.000000000000000 ) ;
#96 = EDGE_LOOP ( 'NONE', ( #77, #149, #94, #254 ) ) ;
#97 = CC_DESIGN_PERSON_AND_ORGANIZATION_ASSIGNMENT ( #222, #185, ( #50 ) ) ;
#98 = CARTESIAN_POINT ( 'NONE',  ( 0.000000000000000000, 0.000000000000000000, 407.0000000000000000 ) ) ;
#99 = LOCAL_TIME ( 19, 8, 36.00000000000000000, #45 ) ;
#100 = DIRECTION ( 'NONE',  ( 1.000000000000000000, 0.000000000000000000, 0.000000000000000000 ) ) ;
#101 = CALENDAR_DATE ( 2022, 7, 7 ) ;
#102 = DIRECTION ( 'NONE',  ( -0.000000000000000000, -0.000000000000000000, -1.000000000000000000 ) ) ;
#103 = CARTESIAN_POINT ( 'NONE',  ( 0.000000000000000000, 0.000000000000000000, 407.0000000000000000 ) ) ;
#104 = APPROVAL_ROLE ( '' ) ;
#105 = CARTESIAN_POINT ( 'NONE',  ( -11.00000000000000000, 0.000000000000000000, 7.000000000000000000 ) ) ;
#106 = CIRCLE ( 'NONE', #132, 11.00000000000000000 ) ;
#107 = APPROVAL ( #112, 'NEURÈENÝ' ) ;
#108 = CARTESIAN_POINT ( 'NONE',  ( -7.750000000000000000, 0.000000000000000000, 407.0000000000000000 ) ) ;
#109 = APPROVAL_DATE_TIME ( #195, #142 ) ;
#110 = MECHANICAL_CONTEXT ( 'NONE', #117, 'mechanical' ) ;
#111 = UNCERTAINTY_MEASURE_WITH_UNIT (LENGTH_MEASURE( 1.000000000000000082E-05 ), #23, 'distance_accuracy_value', 'NONE');
#112 = APPROVAL_STATUS ( 'not_yet_approved' ) ;
#113 = ADVANCED_FACE ( 'NONE', ( #211 ), #177, .T. ) ;
#114 = PRODUCT_DEFINITION_FORMATION_WITH_SPECIFIED_SOURCE ( 'LIBOVOLNÝ', '', #179, .NOT_KNOWN. ) ;
#115 = ORIENTED_EDGE ( 'NONE', *, *, #89, .F. ) ;
#116 = EDGE_LOOP ( 'NONE', ( #54, #131, #151, #189 ) ) ;
#117 = APPLICATION_CONTEXT ( 'configuration controlled 3d designs of mechanical parts and assemblies' ) ;
#118 = ORIENTED_EDGE ( 'NONE', *, *, #78, .T. ) ;
#119 = MANIFOLD_SOLID_BREP ( 'Pøidat vysunutím3', #143 ) ;
#120 = DIRECTION ( 'NONE',  ( 0.000000000000000000, 0.000000000000000000, 1.000000000000000000 ) ) ;
#121 = CARTESIAN_POINT ( 'NONE',  ( 0.000000000000000000, 0.000000000000000000, 407.0000000000000000 ) ) ;
#122 = FACE_OUTER_BOUND ( 'NONE', #230, .T. ) ;
#123 = PERSON_AND_ORGANIZATION ( #15, #251 ) ;
#124 = DIRECTION ( 'NONE',  ( 1.000000000000000000, 0.000000000000000000, -0.000000000000000000 ) ) ;
#125 = DIRECTION ( 'NONE',  ( -0.000000000000000000, -0.000000000000000000, -1.000000000000000000 ) ) ;
#126 = DATE_AND_TIME ( #224, #99 ) ;
#127 = APPLICATION_CONTEXT ( 'configuration controlled 3d designs of mechanical parts and assemblies' ) ;
#128 = CARTESIAN_POINT ( 'NONE',  ( 7.750000000000000000, 9.491012693391987787E-16, 407.0000000000000000 ) ) ;
#129 = ADVANCED_FACE ( 'NONE', ( #39, #122 ), #3, .T. ) ;
#130 = ORIENTED_EDGE ( 'NONE', *, *, #155, .F. ) ;
#131 = ORIENTED_EDGE ( 'NONE', *, *, #55, .F. ) ;
#132 = AXIS2_PLACEMENT_3D ( 'NONE', #178, #21, #198 ) ;
#133 = ADVANCED_FACE ( 'NONE', ( #235 ), #210, .T. ) ;
#134 = CARTESIAN_POINT ( 'NONE',  ( 0.000000000000000000, 0.000000000000000000, 7.000000000000000000 ) ) ;
#135 = CARTESIAN_POINT ( 'NONE',  ( 11.00000000000000000, 1.347111479062088405E-15, 0.000000000000000000 ) ) ;
#136 = APPROVAL_STATUS ( 'not_yet_approved' ) ;
#137 = CARTESIAN_POINT ( 'NONE',  ( 0.000000000000000000, 0.000000000000000000, 0.000000000000000000 ) ) ;
#138 = PRODUCT_DEFINITION_SHAPE ( 'NONE', 'NONE',  #50 ) ;
#139 = FACE_OUTER_BOUND ( 'NONE', #56, .T. ) ;
#140 = DATE_AND_TIME ( #101, #2 ) ;
#141 = DIRECTION ( 'NONE',  ( 1.000000000000000000, 0.000000000000000000, 0.000000000000000000 ) ) ;
#142 = APPROVAL ( #166, 'NEURÈENÝ' ) ;
#143 = CLOSED_SHELL ( 'NONE', ( #199, #133, #61, #129, #36, #113, #156 ) ) ;
#144 = LINE ( 'NONE', #128, #95 ) ;
#145 = PERSON_AND_ORGANIZATION_ROLE ( 'creator' ) ;
#146 = CARTESIAN_POINT ( 'NONE',  ( 0.000000000000000000, 0.000000000000000000, 7.000000000000000000 ) ) ;
#147 = VERTEX_POINT ( 'NONE', #135 ) ;
#148 = AXIS2_PLACEMENT_3D ( 'NONE', #66, #60, #86 ) ;
#149 = ORIENTED_EDGE ( 'NONE', *, *, #208, .F. ) ;
#150 = SECURITY_CLASSIFICATION ( '', '', #65 ) ;
#151 = ORIENTED_EDGE ( 'NONE', *, *, #219, .T. ) ;
#152 = ORIENTED_EDGE ( 'NONE', *, *, #31, .F. ) ;
#153 = AXIS2_PLACEMENT_3D ( 'NONE', #80, #81, #161 ) ;
#154 = ORIENTED_EDGE ( 'NONE', *, *, #78, .F. ) ;
#155 = EDGE_CURVE ( 'NONE', #173, #190, #243, .T. ) ;
#156 = ADVANCED_FACE ( 'NONE', ( #63 ), #37, .T. ) ;
#157 = CC_DESIGN_APPROVAL ( #107, ( #50 ) ) ;
#158 = CARTESIAN_POINT ( 'NONE',  ( 7.750000000000000000, 9.491012693391987787E-16, 7.000000000000000000 ) ) ;
#159 = LINE ( 'NONE', #105, #73 ) ;
#160 = CIRCLE ( 'NONE', #32, 11.00000000000000000 ) ;
#161 = DIRECTION ( 'NONE',  ( 1.000000000000000000, 0.000000000000000000, -0.000000000000000000 ) ) ;
#162 = CC_DESIGN_APPROVAL ( #142, ( #114 ) ) ;
#163 = PERSON_AND_ORGANIZATION ( #15, #251 ) ;
#164 = DIRECTION ( 'NONE',  ( -1.000000000000000000, 0.000000000000000000, 0.000000000000000000 ) ) ;
#165 = LINE ( 'NONE', #187, #200 ) ;
#166 = APPROVAL_STATUS ( 'not_yet_approved' ) ;
#167 = CARTESIAN_POINT ( 'NONE',  ( 0.000000000000000000, 0.000000000000000000, 407.0000000000000000 ) ) ;
#168 = PERSON_AND_ORGANIZATION ( #15, #251 ) ;
#169 = APPLICATION_PROTOCOL_DEFINITION ( 'international standard', 'config_control_design', 1994, #127 ) ;
#170 = ORIENTED_EDGE ( 'NONE', *, *, #208, .T. ) ;
#171 = ORIENTED_EDGE ( 'NONE', *, *, #246, .F. ) ;
#172 = CC_DESIGN_PERSON_AND_ORGANIZATION_ASSIGNMENT ( #163, #239, ( #114 ) ) ;
#173 = VERTEX_POINT ( 'NONE', #10 ) ;
#174 = AXIS2_PLACEMENT_3D ( 'NONE', #167, #6, #93 ) ;
#175 = AXIS2_PLACEMENT_3D ( 'NONE', #234, #19, #124 ) ;
#176 = DIRECTION ( 'NONE',  ( 0.000000000000000000, 0.000000000000000000, 1.000000000000000000 ) ) ;
#177 = CYLINDRICAL_SURFACE ( 'NONE', #52, 7.750000000000000000 ) ;
#178 = CARTESIAN_POINT ( 'NONE',  ( 0.000000000000000000, 0.000000000000000000, 0.000000000000000000 ) ) ;
#179 = PRODUCT ( '8644', '8644', '', ( #110 ) ) ;
#180 = DIRECTION ( 'NONE',  ( -0.000000000000000000, -0.000000000000000000, -1.000000000000000000 ) ) ;
#181 = DATE_AND_TIME ( #244, #87 ) ;
#182 = DIRECTION ( 'NONE',  ( 0.000000000000000000, 0.000000000000000000, 1.000000000000000000 ) ) ;
#183 = LINE ( 'NONE', #221, #233 ) ;
#184 = CIRCLE ( 'NONE', #174, 7.750000000000000000 ) ;
#185 = PERSON_AND_ORGANIZATION_ROLE ( 'creator' ) ;
#186 = DIRECTION ( 'NONE',  ( 1.000000000000000000, 0.000000000000000000, 0.000000000000000000 ) ) ;
#187 = CARTESIAN_POINT ( 'NONE',  ( 11.00000000000000000, 1.347111479062088405E-15, 7.000000000000000000 ) ) ;
#188 = EDGE_CURVE ( 'NONE', #173, #147, #165, .T. ) ;
#189 = ORIENTED_EDGE ( 'NONE', *, *, #89, .T. ) ;
#190 = VERTEX_POINT ( 'NONE', #90 ) ;
#191 = AXIS2_PLACEMENT_3D ( 'NONE', #51, #216, #44 ) ;
#192 = DIRECTION ( 'NONE',  ( 1.000000000000000000, 0.000000000000000000, -0.000000000000000000 ) ) ;
#193 = DIRECTION ( 'NONE',  ( 0.000000000000000000, 0.000000000000000000, 1.000000000000000000 ) ) ;
#194 = EDGE_CURVE ( 'NONE', #247, #229, #184, .T. ) ;
#195 = DATE_AND_TIME ( #85, #40 ) ;
#196 = CYLINDRICAL_SURFACE ( 'NONE', #82, 11.00000000000000000 ) ;
#197 = CARTESIAN_POINT ( 'NONE',  ( 7.750000000000000000, 9.491012693391987787E-16, 407.0000000000000000 ) ) ;
#198 = DIRECTION ( 'NONE',  ( 1.000000000000000000, 0.000000000000000000, 0.000000000000000000 ) ) ;
#199 = ADVANCED_FACE ( 'NONE', ( #139 ), #47, .T. ) ;
#200 = VECTOR ( 'NONE', #238, 1000.000000000000000 ) ;
#201 =( NAMED_UNIT ( * ) SI_UNIT ( $, .STERADIAN. ) SOLID_ANGLE_UNIT ( ) );
#202 = SHAPE_DEFINITION_REPRESENTATION ( #138, #225 ) ;
#203 = CARTESIAN_POINT ( 'NONE',  ( 0.000000000000000000, 0.000000000000000000, 0.000000000000000000 ) ) ;
#204 = DIRECTION ( 'NONE',  ( 0.000000000000000000, 0.000000000000000000, 1.000000000000000000 ) ) ;
#205 = ORIENTED_EDGE ( 'NONE', *, *, #246, .T. ) ;
#206 = ORIENTED_EDGE ( 'NONE', *, *, #155, .T. ) ;
#207 = AXIS2_PLACEMENT_3D ( 'NONE', #121, #193, #17 ) ;
#208 = EDGE_CURVE ( 'NONE', #190, #173, #75, .T. ) ;
#209 = AXIS2_PLACEMENT_3D ( 'NONE', #203, #204, #186 ) ;
#210 = CYLINDRICAL_SURFACE ( 'NONE', #148, 11.00000000000000000 ) ;
#211 = FACE_OUTER_BOUND ( 'NONE', #116, .T. ) ;
#212 = PRODUCT_RELATED_PRODUCT_CATEGORY ( 'detail', '', ( #179 ) ) ;
#213 = DIRECTION ( 'NONE',  ( 1.000000000000000000, 0.000000000000000000, 0.000000000000000000 ) ) ;
#214 = CALENDAR_DATE ( 2022, 7, 7 ) ;
#215 = FACE_OUTER_BOUND ( 'NONE', #96, .T. ) ;
#216 = DIRECTION ( 'NONE',  ( 0.000000000000000000, 0.000000000000000000, 1.000000000000000000 ) ) ;
#217 = APPROVAL_DATE_TIME ( #181, #107 ) ;
#218 = DIRECTION ( 'NONE',  ( 0.000000000000000000, 0.000000000000000000, 1.000000000000000000 ) ) ;
#219 = EDGE_CURVE ( 'NONE', #229, #72, #183, .T. ) ;
#220 = AXIS2_PLACEMENT_3D ( 'NONE', #134, #182, #100 ) ;
#221 = CARTESIAN_POINT ( 'NONE',  ( -7.750000000000000000, 0.000000000000000000, 407.0000000000000000 ) ) ;
#222 = PERSON_AND_ORGANIZATION ( #15, #251 ) ;
#223 = APPROVAL_PERSON_ORGANIZATION ( #48, #142, #69 ) ;
#224 = CALENDAR_DATE ( 2022, 7, 7 ) ;
#225 = ADVANCED_BREP_SHAPE_REPRESENTATION ( '8644', ( #119, #209 ), #13 ) ;
#226 = PERSON_AND_ORGANIZATION_ROLE ( 'design_owner' ) ;
#227 = CC_DESIGN_DATE_AND_TIME_ASSIGNMENT ( #4, #242, ( #50 ) ) ;
#228 = LOCAL_TIME ( 19, 8, 36.00000000000000000, #7 ) ;
#229 = VERTEX_POINT ( 'NONE', #108 ) ;
#230 = EDGE_LOOP ( 'NONE', ( #170, #206 ) ) ;
#231 = EDGE_LOOP ( 'NONE', ( #152, #154 ) ) ;
#232 = CC_DESIGN_PERSON_AND_ORGANIZATION_ASSIGNMENT ( #123, #145, ( #114 ) ) ;
#233 = VECTOR ( 'NONE', #64, 1000.000000000000000 ) ;
#234 = CARTESIAN_POINT ( 'NONE',  ( 0.000000000000000000, 0.000000000000000000, 0.000000000000000000 ) ) ;
#235 = FACE_OUTER_BOUND ( 'NONE', #35, .T. ) ;
#236 = APPROVAL_ROLE ( '' ) ;
#237 = CARTESIAN_POINT ( 'NONE',  ( 0.000000000000000000, 0.000000000000000000, 7.000000000000000000 ) ) ;
#238 = DIRECTION ( 'NONE',  ( -0.000000000000000000, -0.000000000000000000, -1.000000000000000000 ) ) ;
#239 = PERSON_AND_ORGANIZATION_ROLE ( 'design_supplier' ) ;
#240 = ORIENTED_EDGE ( 'NONE', *, *, #43, .F. ) ;
#241 = DIRECTION ( 'NONE',  ( -1.000000000000000000, 0.000000000000000000, 0.000000000000000000 ) ) ;
#242 = DATE_TIME_ROLE ( 'creation_date' ) ;
#243 = CIRCLE ( 'NONE', #83, 11.00000000000000000 ) ;
#244 = CALENDAR_DATE ( 2022, 7, 7 ) ;
#245 = CC_DESIGN_SECURITY_CLASSIFICATION ( #150, ( #114 ) ) ;
#246 = EDGE_CURVE ( 'NONE', #74, #72, #34, .T. ) ;
#247 = VERTEX_POINT ( 'NONE', #197 ) ;
#248 = CIRCLE ( 'NONE', #207, 7.750000000000000000 ) ;
#249 = ORIENTED_EDGE ( 'NONE', *, *, #188, .T. ) ;
#250 = APPROVAL_PERSON_ORGANIZATION ( #28, #107, #104 ) ;
#251 = ORGANIZATION ( 'NEURÈENÝ', 'NEURÈENÝ', '' ) ;
#252 = EDGE_CURVE ( 'NONE', #247, #74, #144, .T. ) ;
#253 = ORIENTED_EDGE ( 'NONE', *, *, #252, .T. ) ;
#254 = ORIENTED_EDGE ( 'NONE', *, *, #31, .T. ) ;
#255 = APPROVAL_PERSON_ORGANIZATION ( #91, #57, #236 ) ;
ENDSEC;
END-ISO-10303-21;
