ISO-10303-21;
HEADER;
FILE_DESCRIPTION (( 'STEP AP203' ),
    '1' );
FILE_NAME ('3175.STEP',
    '2023-02-13T14:50:43',
    ( '' ),
    ( '' ),
    'SwSTEP 2.0',
    'SolidWorks 2019',
    '' );
FILE_SCHEMA (( 'CONFIG_CONTROL_DESIGN' ));
ENDSEC;

DATA;
#1 = PLANE ( 'NONE',  #8 ) ;
#2 = APPROVAL_DATE_TIME ( #215, #162 ) ;
#3 = AXIS2_PLACEMENT_3D ( 'NONE', #157, #154, #136 ) ;
#4 = DIRECTION ( 'NONE',  ( -0.000000000000000000, -0.000000000000000000, -1.000000000000000000 ) ) ;
#5 = ADVANCED_FACE ( 'NONE', ( #208, #161 ), #141, .T. ) ;
#6 = AXIS2_PLACEMENT_3D ( 'NONE', #185, #44, #120 ) ;
#7 = EDGE_LOOP ( 'NONE', ( #176, #62, #177, #113 ) ) ;
#8 = AXIS2_PLACEMENT_3D ( 'NONE', #128, #252, #150 ) ;
#9 = CARTESIAN_POINT ( 'NONE',  ( 0.000000000000000000, 0.000000000000000000, 5.000000000000000000 ) ) ;
#10 = APPROVAL_PERSON_ORGANIZATION ( #243, #63, #183 ) ;
#11 = DIRECTION ( 'NONE',  ( 1.000000000000000000, 0.000000000000000000, -0.000000000000000000 ) ) ;
#12 = ORIENTED_EDGE ( 'NONE', *, *, #100, .F. ) ;
#13 = CC_DESIGN_DATE_AND_TIME_ASSIGNMENT ( #125, #231, ( #112 ) ) ;
#14 = ORIENTED_EDGE ( 'NONE', *, *, #196, .T. ) ;
#15 = DIRECTION ( 'NONE',  ( 0.000000000000000000, 0.000000000000000000, 1.000000000000000000 ) ) ;
#16 = ORIENTED_EDGE ( 'NONE', *, *, #147, .F. ) ;
#17 = FACE_OUTER_BOUND ( 'NONE', #118, .T. ) ;
#18 = CC_DESIGN_DATE_AND_TIME_ASSIGNMENT ( #192, #81, ( #184 ) ) ;
#19 = ORIENTED_EDGE ( 'NONE', *, *, #142, .T. ) ;
#20 = SHAPE_DEFINITION_REPRESENTATION ( #253, #69 ) ;
#21 = PERSON_AND_ORGANIZATION_ROLE ( 'classification_officer' ) ;
#22 = CARTESIAN_POINT ( 'NONE',  ( -3.500000000000000000, 0.000000000000000000, 500.0000000000000000 ) ) ;
#23 = AXIS2_PLACEMENT_3D ( 'NONE', #119, #197, #244 ) ;
#24 = VERTEX_POINT ( 'NONE', #149 ) ;
#25 = APPROVAL ( #146, 'NEURÈENÝ' ) ;
#26 = VERTEX_POINT ( 'NONE', #49 ) ;
#27 = CYLINDRICAL_SURFACE ( 'NONE', #167, 3.500000000000000000 ) ;
#28 = CARTESIAN_POINT ( 'NONE',  ( 3.500000000000000000, 4.286263797015736595E-16, 500.0000000000000000 ) ) ;
#29 = CC_DESIGN_PERSON_AND_ORGANIZATION_ASSIGNMENT ( #209, #50, ( #103 ) ) ;
#30 = AXIS2_PLACEMENT_3D ( 'NONE', #239, #236, #60 ) ;
#31 = CYLINDRICAL_SURFACE ( 'NONE', #65, 3.500000000000000000 ) ;
#32 = ORGANIZATION ( 'NEURÈENÝ', 'NEURÈENÝ', '' ) ;
#33 = ORIENTED_EDGE ( 'NONE', *, *, #194, .T. ) ;
#34 = DATE_AND_TIME ( #109, #80 ) ;
#35 = EDGE_CURVE ( 'NONE', #58, #37, #190, .T. ) ;
#36 = CALENDAR_DATE ( 2023, 13, 2 ) ;
#37 = VERTEX_POINT ( 'NONE', #90 ) ;
#38 = AXIS2_PLACEMENT_3D ( 'NONE', #225, #15, #234 ) ;
#39 = PERSON_AND_ORGANIZATION ( #79, #32 ) ;
#40 = ORIENTED_EDGE ( 'NONE', *, *, #61, .F. ) ;
#41 = CARTESIAN_POINT ( 'NONE',  ( 0.000000000000000000, 0.000000000000000000, 500.0000000000000000 ) ) ;
#42 = CIRCLE ( 'NONE', #110, 6.000000000000000888 ) ;
#43 = ADVANCED_FACE ( 'NONE', ( #164 ), #1, .T. ) ;
#44 = DIRECTION ( 'NONE',  ( 0.000000000000000000, 0.000000000000000000, 1.000000000000000000 ) ) ;
#45 = ORIENTED_EDGE ( 'NONE', *, *, #123, .T. ) ;
#46 = CC_DESIGN_APPROVAL ( #162, ( #184 ) ) ;
#47 = CC_DESIGN_PERSON_AND_ORGANIZATION_ASSIGNMENT ( #189, #21, ( #112 ) ) ;
#48 = APPROVAL_DATE_TIME ( #145, #63 ) ;
#49 = CARTESIAN_POINT ( 'NONE',  ( 3.500000000000000000, 4.286263797015736595E-16, 5.000000000000000000 ) ) ;
#50 = PERSON_AND_ORGANIZATION_ROLE ( 'creator' ) ;
#51 = CC_DESIGN_PERSON_AND_ORGANIZATION_ASSIGNMENT ( #39, #218, ( #191 ) ) ;
#52 = ORIENTED_EDGE ( 'NONE', *, *, #72, .F. ) ;
#53 = LOCAL_TIME ( 15, 50, 43.00000000000000000, #204 ) ;
#54 = APPLICATION_PROTOCOL_DEFINITION ( 'international standard', 'config_control_design', 1994, #242 ) ;
#55 = ORIENTED_EDGE ( 'NONE', *, *, #147, .T. ) ;
#56 = CARTESIAN_POINT ( 'NONE',  ( 0.000000000000000000, 0.000000000000000000, 5.000000000000000000 ) ) ;
#57 = CARTESIAN_POINT ( 'NONE',  ( 0.000000000000000000, 0.000000000000000000, 5.000000000000000000 ) ) ;
#58 = VERTEX_POINT ( 'NONE', #71 ) ;
#59 = LINE ( 'NONE', #168, #64 ) ;
#60 = DIRECTION ( 'NONE',  ( 1.000000000000000000, 0.000000000000000000, 0.000000000000000000 ) ) ;
#61 = EDGE_CURVE ( 'NONE', #198, #221, #206, .T. ) ;
#62 = ORIENTED_EDGE ( 'NONE', *, *, #158, .F. ) ;
#63 = APPROVAL ( #70, 'NEURÈENÝ' ) ;
#64 = VECTOR ( 'NONE', #133, 1000.000000000000000 ) ;
#65 = AXIS2_PLACEMENT_3D ( 'NONE', #67, #88, #83 ) ;
#66 = DIRECTION ( 'NONE',  ( -0.000000000000000000, -0.000000000000000000, -1.000000000000000000 ) ) ;
#67 = CARTESIAN_POINT ( 'NONE',  ( 0.000000000000000000, 0.000000000000000000, 500.0000000000000000 ) ) ;
#68 = ADVANCED_FACE ( 'NONE', ( #160 ), #174, .F. ) ;
#69 = ADVANCED_BREP_SHAPE_REPRESENTATION ( '3175', ( #140, #135 ), #106 ) ;
#70 = APPROVAL_STATUS ( 'not_yet_approved' ) ;
#71 = CARTESIAN_POINT ( 'NONE',  ( -3.500000000000000000, 0.000000000000000000, 500.0000000000000000 ) ) ;
#72 = EDGE_CURVE ( 'NONE', #248, #26, #59, .T. ) ;
#73 = ORIENTED_EDGE ( 'NONE', *, *, #194, .F. ) ;
#74 = LOCAL_TIME ( 15, 50, 43.00000000000000000, #210 ) ;
#75 = CALENDAR_DATE ( 2023, 13, 2 ) ;
#76 = DIRECTION ( 'NONE',  ( 1.000000000000000000, 0.000000000000000000, 0.000000000000000000 ) ) ;
#77 = CARTESIAN_POINT ( 'NONE',  ( 0.000000000000000000, 0.000000000000000000, 0.000000000000000000 ) ) ;
#78 = DIRECTION ( 'NONE',  ( 1.000000000000000000, 0.000000000000000000, 0.000000000000000000 ) ) ;
#79 = PERSON ( 'NEURÈENÝ', 'NEURÈENÝ', 'NEURÈENÝ', ('NEURÈENÝ'), ('NEURÈENÝ'), ('NEURÈENÝ') ) ;
#80 = LOCAL_TIME ( 15, 50, 43.00000000000000000, #230 ) ;
#81 = DATE_TIME_ROLE ( 'creation_date' ) ;
#82 = EDGE_CURVE ( 'NONE', #221, #152, #87, .T. ) ;
#83 = DIRECTION ( 'NONE',  ( -1.000000000000000000, 0.000000000000000000, 0.000000000000000000 ) ) ;
#84 = CIRCLE ( 'NONE', #203, 3.500000000000000000 ) ;
#85 = CARTESIAN_POINT ( 'NONE',  ( -6.000000000000000888, 0.000000000000000000, 5.000000000000000000 ) ) ;
#86 = DIRECTION ( 'NONE',  ( 1.000000000000000000, 0.000000000000000000, 0.000000000000000000 ) ) ;
#87 = CIRCLE ( 'NONE', #3, 6.000000000000000888 ) ;
#88 = DIRECTION ( 'NONE',  ( -0.000000000000000000, -0.000000000000000000, -1.000000000000000000 ) ) ;
#89 = ADVANCED_FACE ( 'NONE', ( #195 ), #27, .T. ) ;
#90 = CARTESIAN_POINT ( 'NONE',  ( -3.500000000000000000, 0.000000000000000000, 5.000000000000000000 ) ) ;
#91 = APPROVAL_DATE_TIME ( #34, #25 ) ;
#92 = APPROVAL_PERSON_ORGANIZATION ( #130, #162, #211 ) ;
#93 = DIRECTION ( 'NONE',  ( -0.000000000000000000, -0.000000000000000000, -1.000000000000000000 ) ) ;
#94 = ORIENTED_EDGE ( 'NONE', *, *, #35, .F. ) ;
#95 = DIRECTION ( 'NONE',  ( -0.000000000000000000, -0.000000000000000000, -1.000000000000000000 ) ) ;
#96 = CARTESIAN_POINT ( 'NONE',  ( 0.000000000000000000, 0.000000000000000000, 5.000000000000000000 ) ) ;
#97 = CC_DESIGN_PERSON_AND_ORGANIZATION_ASSIGNMENT ( #151, #232, ( #184 ) ) ;
#98 = ORIENTED_EDGE ( 'NONE', *, *, #35, .T. ) ;
#99 = DIRECTION ( 'NONE',  ( -0.000000000000000000, -0.000000000000000000, -1.000000000000000000 ) ) ;
#100 = EDGE_CURVE ( 'NONE', #58, #248, #163, .T. ) ;
#101 = EDGE_LOOP ( 'NONE', ( #121, #33 ) ) ;
#102 = DIRECTION ( 'NONE',  ( 0.000000000000000000, 0.000000000000000000, 1.000000000000000000 ) ) ;
#103 = PRODUCT_DEFINITION_FORMATION_WITH_SPECIFIED_SOURCE ( 'LIBOVOLNÝ', '', #191, .NOT_KNOWN. ) ;
#104 =( LENGTH_UNIT ( ) NAMED_UNIT ( * ) SI_UNIT ( .MILLI., .METRE. ) );
#105 =( NAMED_UNIT ( * ) PLANE_ANGLE_UNIT ( ) SI_UNIT ( $, .RADIAN. ) );
#106 =( GEOMETRIC_REPRESENTATION_CONTEXT ( 3 ) GLOBAL_UNCERTAINTY_ASSIGNED_CONTEXT ( ( #180 ) ) GLOBAL_UNIT_ASSIGNED_CONTEXT ( ( #104, #105, #200 ) ) REPRESENTATION_CONTEXT ( 'NONE', 'WORKASPACE' ) );
#107 = LOCAL_TIME ( 15, 50, 43.00000000000000000, #251 ) ;
#108 = PERSON_AND_ORGANIZATION ( #79, #32 ) ;
#109 = CALENDAR_DATE ( 2023, 13, 2 ) ;
#110 = AXIS2_PLACEMENT_3D ( 'NONE', #115, #224, #247 ) ;
#111 = CALENDAR_DATE ( 2023, 13, 2 ) ;
#112 = SECURITY_CLASSIFICATION ( '', '', #186 ) ;
#113 = ORIENTED_EDGE ( 'NONE', *, *, #82, .T. ) ;
#114 = APPLICATION_CONTEXT ( 'configuration controlled 3d designs of mechanical parts and assemblies' ) ;
#115 = CARTESIAN_POINT ( 'NONE',  ( 0.000000000000000000, 0.000000000000000000, 5.000000000000000000 ) ) ;
#116 = EDGE_LOOP ( 'NONE', ( #124, #14 ) ) ;
#117 = DIRECTION ( 'NONE',  ( 0.000000000000000000, 0.000000000000000000, 1.000000000000000000 ) ) ;
#118 = EDGE_LOOP ( 'NONE', ( #148, #172, #45, #94 ) ) ;
#119 = CARTESIAN_POINT ( 'NONE',  ( 0.000000000000000000, 0.000000000000000000, 0.000000000000000000 ) ) ;
#120 = DIRECTION ( 'NONE',  ( 1.000000000000000000, 0.000000000000000000, 0.000000000000000000 ) ) ;
#121 = ORIENTED_EDGE ( 'NONE', *, *, #158, .T. ) ;
#122 = FACE_OUTER_BOUND ( 'NONE', #143, .T. ) ;
#123 = EDGE_CURVE ( 'NONE', #26, #37, #84, .T. ) ;
#124 = ORIENTED_EDGE ( 'NONE', *, *, #100, .T. ) ;
#125 = DATE_AND_TIME ( #226, #53 ) ;
#126 = VECTOR ( 'NONE', #99, 1000.000000000000000 ) ;
#127 = APPROVAL_PERSON_ORGANIZATION ( #254, #25, #201 ) ;
#128 = CARTESIAN_POINT ( 'NONE',  ( 0.000000000000000000, 0.000000000000000000, 500.0000000000000000 ) ) ;
#129 = ADVANCED_FACE ( 'NONE', ( #122 ), #202, .T. ) ;
#130 = PERSON_AND_ORGANIZATION ( #79, #32 ) ;
#131 = DIRECTION ( 'NONE',  ( 0.000000000000000000, 0.000000000000000000, 1.000000000000000000 ) ) ;
#132 = CIRCLE ( 'NONE', #30, 3.500000000000000000 ) ;
#133 = DIRECTION ( 'NONE',  ( -0.000000000000000000, -0.000000000000000000, -1.000000000000000000 ) ) ;
#134 = APPLICATION_PROTOCOL_DEFINITION ( 'international standard', 'config_control_design', 1994, #114 ) ;
#135 = AXIS2_PLACEMENT_3D ( 'NONE', #240, #169, #76 ) ;
#136 = DIRECTION ( 'NONE',  ( 1.000000000000000000, 0.000000000000000000, 0.000000000000000000 ) ) ;
#137 = MECHANICAL_CONTEXT ( 'NONE', #114, 'mechanical' ) ;
#138 = CC_DESIGN_PERSON_AND_ORGANIZATION_ASSIGNMENT ( #108, #227, ( #103 ) ) ;
#139 = CARTESIAN_POINT ( 'NONE',  ( 0.000000000000000000, 0.000000000000000000, 500.0000000000000000 ) ) ;
#140 = MANIFOLD_SOLID_BREP ( 'Pøidat vysunutím3', #175 ) ;
#141 = PLANE ( 'NONE',  #38 ) ;
#142 = EDGE_CURVE ( 'NONE', #24, #152, #155, .T. ) ;
#143 = EDGE_LOOP ( 'NONE', ( #73, #19, #245, #40 ) ) ;
#144 = CC_DESIGN_APPROVAL ( #25, ( #112 ) ) ;
#145 = DATE_AND_TIME ( #111, #107 ) ;
#146 = APPROVAL_STATUS ( 'not_yet_approved' ) ;
#147 = EDGE_CURVE ( 'NONE', #37, #26, #132, .T. ) ;
#148 = ORIENTED_EDGE ( 'NONE', *, *, #196, .F. ) ;
#149 = CARTESIAN_POINT ( 'NONE',  ( 6.000000000000000888, 7.347880794884120722E-16, 5.000000000000000000 ) ) ;
#150 = DIRECTION ( 'NONE',  ( 1.000000000000000000, 0.000000000000000000, -0.000000000000000000 ) ) ;
#151 = PERSON_AND_ORGANIZATION ( #79, #32 ) ;
#152 = VERTEX_POINT ( 'NONE', #173 ) ;
#153 = AXIS2_PLACEMENT_3D ( 'NONE', #57, #131, #212 ) ;
#154 = DIRECTION ( 'NONE',  ( 0.000000000000000000, 0.000000000000000000, 1.000000000000000000 ) ) ;
#155 = LINE ( 'NONE', #156, #126 ) ;
#156 = CARTESIAN_POINT ( 'NONE',  ( 6.000000000000000888, 7.347880794884120722E-16, 5.000000000000000000 ) ) ;
#157 = CARTESIAN_POINT ( 'NONE',  ( 0.000000000000000000, 0.000000000000000000, 0.000000000000000000 ) ) ;
#158 = EDGE_CURVE ( 'NONE', #198, #24, #249, .T. ) ;
#159 = LOCAL_TIME ( 15, 50, 43.00000000000000000, #165 ) ;
#160 = FACE_OUTER_BOUND ( 'NONE', #199, .T. ) ;
#161 = FACE_OUTER_BOUND ( 'NONE', #101, .T. ) ;
#162 = APPROVAL ( #171, 'NEURÈENÝ' ) ;
#163 = CIRCLE ( 'NONE', #229, 3.500000000000000000 ) ;
#164 = FACE_OUTER_BOUND ( 'NONE', #116, .T. ) ;
#165 = COORDINATED_UNIVERSAL_TIME_OFFSET ( 1, 0, .AHEAD. ) ;
#166 = PRODUCT_RELATED_PRODUCT_CATEGORY ( 'detail', '', ( #191 ) ) ;
#167 = AXIS2_PLACEMENT_3D ( 'NONE', #139, #222, #235 ) ;
#168 = CARTESIAN_POINT ( 'NONE',  ( 3.500000000000000000, 4.286263797015736595E-16, 500.0000000000000000 ) ) ;
#169 = DIRECTION ( 'NONE',  ( 0.000000000000000000, 0.000000000000000000, 1.000000000000000000 ) ) ;
#170 = DIRECTION ( 'NONE',  ( -1.000000000000000000, 0.000000000000000000, 0.000000000000000000 ) ) ;
#171 = APPROVAL_STATUS ( 'not_yet_approved' ) ;
#172 = ORIENTED_EDGE ( 'NONE', *, *, #72, .T. ) ;
#173 = CARTESIAN_POINT ( 'NONE',  ( 6.000000000000000888, 7.347880794884120722E-16, 0.000000000000000000 ) ) ;
#174 = PLANE ( 'NONE',  #233 ) ;
#175 = CLOSED_SHELL ( 'NONE', ( #205, #129, #178, #5, #68, #89, #43 ) ) ;
#176 = ORIENTED_EDGE ( 'NONE', *, *, #142, .F. ) ;
#177 = ORIENTED_EDGE ( 'NONE', *, *, #61, .T. ) ;
#178 = ADVANCED_FACE ( 'NONE', ( #219 ), #217, .T. ) ;
#179 = CARTESIAN_POINT ( 'NONE',  ( -6.000000000000000888, 0.000000000000000000, 0.000000000000000000 ) ) ;
#180 = UNCERTAINTY_MEASURE_WITH_UNIT (LENGTH_MEASURE( 1.000000000000000082E-05 ), #104, 'distance_accuracy_value', 'NONE');
#181 = VECTOR ( 'NONE', #95, 1000.000000000000000 ) ;
#182 = DIRECTION ( 'NONE',  ( 0.000000000000000000, 0.000000000000000000, 1.000000000000000000 ) ) ;
#183 = APPROVAL_ROLE ( '' ) ;
#184 = PRODUCT_DEFINITION ( 'NEZNÁMÝ', '', #103, #213 ) ;
#185 = CARTESIAN_POINT ( 'NONE',  ( 0.000000000000000000, 0.000000000000000000, 500.0000000000000000 ) ) ;
#186 = SECURITY_CLASSIFICATION_LEVEL ( 'unclassified' ) ;
#187 = AXIS2_PLACEMENT_3D ( 'NONE', #9, #66, #220 ) ;
#188 = VECTOR ( 'NONE', #93, 1000.000000000000000 ) ;
#189 = PERSON_AND_ORGANIZATION ( #79, #32 ) ;
#190 = LINE ( 'NONE', #22, #188 ) ;
#191 = PRODUCT ( '3175', '3175', '', ( #137 ) ) ;
#192 = DATE_AND_TIME ( #36, #74 ) ;
#193 = AXIS2_PLACEMENT_3D ( 'NONE', #96, #4, #170 ) ;
#194 = EDGE_CURVE ( 'NONE', #24, #198, #42, .T. ) ;
#195 = FACE_OUTER_BOUND ( 'NONE', #214, .T. ) ;
#196 = EDGE_CURVE ( 'NONE', #248, #58, #241, .T. ) ;
#197 = DIRECTION ( 'NONE',  ( 0.000000000000000000, 0.000000000000000000, 1.000000000000000000 ) ) ;
#198 = VERTEX_POINT ( 'NONE', #85 ) ;
#199 = EDGE_LOOP ( 'NONE', ( #237, #255 ) ) ;
#200 =( NAMED_UNIT ( * ) SI_UNIT ( $, .STERADIAN. ) SOLID_ANGLE_UNIT ( ) );
#201 = APPROVAL_ROLE ( '' ) ;
#202 = CYLINDRICAL_SURFACE ( 'NONE', #193, 6.000000000000000888 ) ;
#203 = AXIS2_PLACEMENT_3D ( 'NONE', #56, #182, #86 ) ;
#204 = COORDINATED_UNIVERSAL_TIME_OFFSET ( 1, 0, .AHEAD. ) ;
#205 = ADVANCED_FACE ( 'NONE', ( #17 ), #31, .T. ) ;
#206 = LINE ( 'NONE', #238, #181 ) ;
#207 = CIRCLE ( 'NONE', #23, 6.000000000000000888 ) ;
#208 = FACE_BOUND ( 'NONE', #246, .T. ) ;
#209 = PERSON_AND_ORGANIZATION ( #79, #32 ) ;
#210 = COORDINATED_UNIVERSAL_TIME_OFFSET ( 1, 0, .AHEAD. ) ;
#211 = APPROVAL_ROLE ( '' ) ;
#212 = DIRECTION ( 'NONE',  ( 1.000000000000000000, 0.000000000000000000, 0.000000000000000000 ) ) ;
#213 = DESIGN_CONTEXT ( 'detailed design', #242, 'design' ) ;
#214 = EDGE_LOOP ( 'NONE', ( #52, #12, #98, #55 ) ) ;
#215 = DATE_AND_TIME ( #75, #159 ) ;
#216 = CC_DESIGN_APPROVAL ( #63, ( #103 ) ) ;
#217 = CYLINDRICAL_SURFACE ( 'NONE', #187, 6.000000000000000888 ) ;
#218 = PERSON_AND_ORGANIZATION_ROLE ( 'design_owner' ) ;
#219 = FACE_OUTER_BOUND ( 'NONE', #7, .T. ) ;
#220 = DIRECTION ( 'NONE',  ( -1.000000000000000000, 0.000000000000000000, 0.000000000000000000 ) ) ;
#221 = VERTEX_POINT ( 'NONE', #179 ) ;
#222 = DIRECTION ( 'NONE',  ( -0.000000000000000000, -0.000000000000000000, -1.000000000000000000 ) ) ;
#223 = ORIENTED_EDGE ( 'NONE', *, *, #123, .F. ) ;
#224 = DIRECTION ( 'NONE',  ( 0.000000000000000000, 0.000000000000000000, 1.000000000000000000 ) ) ;
#225 = CARTESIAN_POINT ( 'NONE',  ( 0.000000000000000000, 0.000000000000000000, 5.000000000000000000 ) ) ;
#226 = CALENDAR_DATE ( 2023, 13, 2 ) ;
#227 = PERSON_AND_ORGANIZATION_ROLE ( 'design_supplier' ) ;
#228 = EDGE_CURVE ( 'NONE', #152, #221, #207, .T. ) ;
#229 = AXIS2_PLACEMENT_3D ( 'NONE', #41, #117, #78 ) ;
#230 = COORDINATED_UNIVERSAL_TIME_OFFSET ( 1, 0, .AHEAD. ) ;
#231 = DATE_TIME_ROLE ( 'classification_date' ) ;
#232 = PERSON_AND_ORGANIZATION_ROLE ( 'creator' ) ;
#233 = AXIS2_PLACEMENT_3D ( 'NONE', #77, #102, #11 ) ;
#234 = DIRECTION ( 'NONE',  ( 1.000000000000000000, 0.000000000000000000, -0.000000000000000000 ) ) ;
#235 = DIRECTION ( 'NONE',  ( -1.000000000000000000, 0.000000000000000000, 0.000000000000000000 ) ) ;
#236 = DIRECTION ( 'NONE',  ( 0.000000000000000000, 0.000000000000000000, 1.000000000000000000 ) ) ;
#237 = ORIENTED_EDGE ( 'NONE', *, *, #82, .F. ) ;
#238 = CARTESIAN_POINT ( 'NONE',  ( -6.000000000000000888, 0.000000000000000000, 5.000000000000000000 ) ) ;
#239 = CARTESIAN_POINT ( 'NONE',  ( 0.000000000000000000, 0.000000000000000000, 5.000000000000000000 ) ) ;
#240 = CARTESIAN_POINT ( 'NONE',  ( 0.000000000000000000, 0.000000000000000000, 0.000000000000000000 ) ) ;
#241 = CIRCLE ( 'NONE', #6, 3.500000000000000000 ) ;
#242 = APPLICATION_CONTEXT ( 'configuration controlled 3d designs of mechanical parts and assemblies' ) ;
#243 = PERSON_AND_ORGANIZATION ( #79, #32 ) ;
#244 = DIRECTION ( 'NONE',  ( 1.000000000000000000, 0.000000000000000000, 0.000000000000000000 ) ) ;
#245 = ORIENTED_EDGE ( 'NONE', *, *, #228, .T. ) ;
#246 = EDGE_LOOP ( 'NONE', ( #16, #223 ) ) ;
#247 = DIRECTION ( 'NONE',  ( 1.000000000000000000, 0.000000000000000000, 0.000000000000000000 ) ) ;
#248 = VERTEX_POINT ( 'NONE', #28 ) ;
#249 = CIRCLE ( 'NONE', #153, 6.000000000000000888 ) ;
#250 = CC_DESIGN_SECURITY_CLASSIFICATION ( #112, ( #103 ) ) ;
#251 = COORDINATED_UNIVERSAL_TIME_OFFSET ( 1, 0, .AHEAD. ) ;
#252 = DIRECTION ( 'NONE',  ( 0.000000000000000000, 0.000000000000000000, 1.000000000000000000 ) ) ;
#253 = PRODUCT_DEFINITION_SHAPE ( 'NONE', 'NONE',  #184 ) ;
#254 = PERSON_AND_ORGANIZATION ( #79, #32 ) ;
#255 = ORIENTED_EDGE ( 'NONE', *, *, #228, .F. ) ;
ENDSEC;
END-ISO-10303-21;
