ISO-10303-21;
HEADER;
FILE_DESCRIPTION (( 'STEP AP203' ),
    '1' );
FILE_NAME ('d063.STEP',
    '2022-07-07T17:19:11',
    ( '' ),
    ( '' ),
    'SwSTEP 2.0',
    'SolidWorks 2019',
    '' );
FILE_SCHEMA (( 'CONFIG_CONTROL_DESIGN' ));
ENDSEC;

DATA;
#1 = PLANE ( 'NONE',  #77 ) ;
#2 = ADVANCED_FACE ( 'NONE', ( #247 ), #152, .T. ) ;
#3 = CYLINDRICAL_SURFACE ( 'NONE', #161, 6.250000000000000000 ) ;
#4 = AXIS2_PLACEMENT_3D ( 'NONE', #142, #225, #41 ) ;
#5 = CARTESIAN_POINT ( 'NONE',  ( -6.250000000000000000, 0.000000000000000000, 7.000000000000000000 ) ) ;
#6 = EDGE_LOOP ( 'NONE', ( #188, #111, #212, #65 ) ) ;
#7 = ORIENTED_EDGE ( 'NONE', *, *, #101, .T. ) ;
#8 = APPROVAL ( #97, 'NEURÈENÝ' ) ;
#9 = ORIENTED_EDGE ( 'NONE', *, *, #21, .T. ) ;
#10 = VECTOR ( 'NONE', #209, 1000.000000000000000 ) ;
#11 = ORIENTED_EDGE ( 'NONE', *, *, #114, .T. ) ;
#12 = EDGE_CURVE ( 'NONE', #49, #190, #34, .T. ) ;
#13 = ORIENTED_EDGE ( 'NONE', *, *, #226, .T. ) ;
#14 = CARTESIAN_POINT ( 'NONE',  ( 0.000000000000000000, 0.000000000000000000, 0.000000000000000000 ) ) ;
#15 = FACE_OUTER_BOUND ( 'NONE', #193, .T. ) ;
#16 = CLOSED_SHELL ( 'NONE', ( #201, #83, #2, #160, #47, #248, #197 ) ) ;
#17 = APPROVAL_DATE_TIME ( #73, #93 ) ;
#18 = SHAPE_DEFINITION_REPRESENTATION ( #118, #237 ) ;
#19 = CARTESIAN_POINT ( 'NONE',  ( 0.000000000000000000, 0.000000000000000000, 7.000000000000000000 ) ) ;
#20 = FACE_OUTER_BOUND ( 'NONE', #26, .T. ) ;
#21 = EDGE_CURVE ( 'NONE', #190, #49, #24, .T. ) ;
#22 = CARTESIAN_POINT ( 'NONE',  ( 0.000000000000000000, 0.000000000000000000, 0.000000000000000000 ) ) ;
#23 = CYLINDRICAL_SURFACE ( 'NONE', #81, 9.000000000000000000 ) ;
#24 = CIRCLE ( 'NONE', #181, 6.250000000000000000 ) ;
#25 = DIRECTION ( 'NONE',  ( -0.000000000000000000, -0.000000000000000000, -1.000000000000000000 ) ) ;
#26 = EDGE_LOOP ( 'NONE', ( #11, #127 ) ) ;
#27 = EDGE_CURVE ( 'NONE', #69, #109, #136, .T. ) ;
#28 = ORIENTED_EDGE ( 'NONE', *, *, #101, .F. ) ;
#29 = ORIENTED_EDGE ( 'NONE', *, *, #71, .F. ) ;
#30 = CIRCLE ( 'NONE', #155, 6.250000000000000000 ) ;
#31 = CARTESIAN_POINT ( 'NONE',  ( 0.000000000000000000, 0.000000000000000000, 107.0000000000000142 ) ) ;
#32 = DIRECTION ( 'NONE',  ( -0.000000000000000000, -0.000000000000000000, -1.000000000000000000 ) ) ;
#33 = DIRECTION ( 'NONE',  ( 0.000000000000000000, 0.000000000000000000, 1.000000000000000000 ) ) ;
#34 = CIRCLE ( 'NONE', #57, 6.250000000000000000 ) ;
#35 = DIRECTION ( 'NONE',  ( -1.000000000000000000, 0.000000000000000000, 0.000000000000000000 ) ) ;
#36 = PERSON_AND_ORGANIZATION ( #254, #187 ) ;
#37 = CIRCLE ( 'NONE', #232, 9.000000000000000000 ) ;
#38 = PERSON_AND_ORGANIZATION ( #254, #187 ) ;
#39 = CC_DESIGN_PERSON_AND_ORGANIZATION_ASSIGNMENT ( #220, #138, ( #54 ) ) ;
#40 = CC_DESIGN_APPROVAL ( #93, ( #54 ) ) ;
#41 = DIRECTION ( 'NONE',  ( 1.000000000000000000, 0.000000000000000000, 0.000000000000000000 ) ) ;
#42 = EDGE_CURVE ( 'NONE', #85, #190, #79, .T. ) ;
#43 = AXIS2_PLACEMENT_3D ( 'NONE', #22, #224, #189 ) ;
#44 = CARTESIAN_POINT ( 'NONE',  ( -9.000000000000000000, 0.000000000000000000, 7.000000000000000000 ) ) ;
#45 = FACE_BOUND ( 'NONE', #128, .T. ) ;
#46 = LINE ( 'NONE', #163, #192 ) ;
#47 = ADVANCED_FACE ( 'NONE', ( #207 ), #78, .F. ) ;
#48 = DIRECTION ( 'NONE',  ( 1.000000000000000000, 0.000000000000000000, 0.000000000000000000 ) ) ;
#49 = VERTEX_POINT ( 'NONE', #5 ) ;
#50 = EDGE_LOOP ( 'NONE', ( #191, #52 ) ) ;
#51 = CC_DESIGN_PERSON_AND_ORGANIZATION_ASSIGNMENT ( #231, #72, ( #221 ) ) ;
#52 = ORIENTED_EDGE ( 'NONE', *, *, #226, .F. ) ;
#53 = CALENDAR_DATE ( 2022, 7, 7 ) ;
#54 = PRODUCT_DEFINITION_FORMATION_WITH_SPECIFIED_SOURCE ( 'LIBOVOLNÝ', '', #221, .NOT_KNOWN. ) ;
#55 = APPROVAL_DATE_TIME ( #92, #219 ) ;
#56 = CC_DESIGN_DATE_AND_TIME_ASSIGNMENT ( #60, #200, ( #218 ) ) ;
#57 = AXIS2_PLACEMENT_3D ( 'NONE', #113, #194, #48 ) ;
#58 = APPROVAL_ROLE ( '' ) ;
#59 = LOCAL_TIME ( 19, 19, 11.00000000000000000, #216 ) ;
#60 = DATE_AND_TIME ( #235, #95 ) ;
#61 = DIRECTION ( 'NONE',  ( 0.000000000000000000, 0.000000000000000000, 1.000000000000000000 ) ) ;
#62 = DIRECTION ( 'NONE',  ( 1.000000000000000000, 0.000000000000000000, 0.000000000000000000 ) ) ;
#63 = DIRECTION ( 'NONE',  ( 1.000000000000000000, 0.000000000000000000, -0.000000000000000000 ) ) ;
#64 = DIRECTION ( 'NONE',  ( -0.000000000000000000, -0.000000000000000000, -1.000000000000000000 ) ) ;
#65 = ORIENTED_EDGE ( 'NONE', *, *, #121, .T. ) ;
#66 = ORIENTED_EDGE ( 'NONE', *, *, #42, .T. ) ;
#67 = CIRCLE ( 'NONE', #228, 9.000000000000000000 ) ;
#68 = APPROVAL_STATUS ( 'not_yet_approved' ) ;
#69 = VERTEX_POINT ( 'NONE', #208 ) ;
#70 = APPROVAL_ROLE ( '' ) ;
#71 = EDGE_CURVE ( 'NONE', #109, #210, #46, .T. ) ;
#72 = PERSON_AND_ORGANIZATION_ROLE ( 'design_owner' ) ;
#73 = DATE_AND_TIME ( #253, #238 ) ;
#74 = APPROVAL_PERSON_ORGANIZATION ( #76, #93, #199 ) ;
#75 = CC_DESIGN_PERSON_AND_ORGANIZATION_ASSIGNMENT ( #234, #233, ( #168 ) ) ;
#76 = PERSON_AND_ORGANIZATION ( #254, #187 ) ;
#77 = AXIS2_PLACEMENT_3D ( 'NONE', #255, #102, #63 ) ;
#78 = PLANE ( 'NONE',  #43 ) ;
#79 = LINE ( 'NONE', #124, #10 ) ;
#80 = CARTESIAN_POINT ( 'NONE',  ( 0.000000000000000000, 0.000000000000000000, 107.0000000000000142 ) ) ;
#81 = AXIS2_PLACEMENT_3D ( 'NONE', #103, #64, #82 ) ;
#82 = DIRECTION ( 'NONE',  ( -1.000000000000000000, 0.000000000000000000, 0.000000000000000000 ) ) ;
#83 = ADVANCED_FACE ( 'NONE', ( #162 ), #23, .T. ) ;
#84 = CC_DESIGN_SECURITY_CLASSIFICATION ( #218, ( #54 ) ) ;
#85 = VERTEX_POINT ( 'NONE', #204 ) ;
#86 = ORIENTED_EDGE ( 'NONE', *, *, #132, .T. ) ;
#87 = AXIS2_PLACEMENT_3D ( 'NONE', #240, #203, #122 ) ;
#88 = ORIENTED_EDGE ( 'NONE', *, *, #98, .F. ) ;
#89 = ORIENTED_EDGE ( 'NONE', *, *, #98, .T. ) ;
#90 = DIRECTION ( 'NONE',  ( 1.000000000000000000, 0.000000000000000000, 0.000000000000000000 ) ) ;
#91 = ORIENTED_EDGE ( 'NONE', *, *, #12, .F. ) ;
#92 = DATE_AND_TIME ( #53, #141 ) ;
#93 = APPROVAL ( #119, 'NEURÈENÝ' ) ;
#94 = DIRECTION ( 'NONE',  ( 1.000000000000000000, 0.000000000000000000, 0.000000000000000000 ) ) ;
#95 = LOCAL_TIME ( 19, 19, 11.00000000000000000, #202 ) ;
#96 = CARTESIAN_POINT ( 'NONE',  ( 0.000000000000000000, 0.000000000000000000, 107.0000000000000142 ) ) ;
#97 = APPROVAL_STATUS ( 'not_yet_approved' ) ;
#98 = EDGE_CURVE ( 'NONE', #229, #49, #125, .T. ) ;
#99 = DATE_AND_TIME ( #139, #112 ) ;
#100 = DIRECTION ( 'NONE',  ( 0.000000000000000000, 0.000000000000000000, 1.000000000000000000 ) ) ;
#101 = EDGE_CURVE ( 'NONE', #229, #85, #30, .T. ) ;
#102 = DIRECTION ( 'NONE',  ( 0.000000000000000000, 0.000000000000000000, 1.000000000000000000 ) ) ;
#103 = CARTESIAN_POINT ( 'NONE',  ( 0.000000000000000000, 0.000000000000000000, 7.000000000000000000 ) ) ;
#104 = DIRECTION ( 'NONE',  ( 0.000000000000000000, 0.000000000000000000, 1.000000000000000000 ) ) ;
#105 = DESIGN_CONTEXT ( 'detailed design', #171, 'design' ) ;
#106 =( GEOMETRIC_REPRESENTATION_CONTEXT ( 3 ) GLOBAL_UNCERTAINTY_ASSIGNED_CONTEXT ( ( #164 ) ) GLOBAL_UNIT_ASSIGNED_CONTEXT ( ( #249, #154, #115 ) ) REPRESENTATION_CONTEXT ( 'NONE', 'WORKASPACE' ) );
#107 = PLANE ( 'NONE',  #205 ) ;
#108 = MANIFOLD_SOLID_BREP ( 'Pøidat vysunutím3', #16 ) ;
#109 = VERTEX_POINT ( 'NONE', #44 ) ;
#110 = ORIENTED_EDGE ( 'NONE', *, *, #245, .F. ) ;
#111 = ORIENTED_EDGE ( 'NONE', *, *, #114, .F. ) ;
#112 = LOCAL_TIME ( 19, 19, 11.00000000000000000, #159 ) ;
#113 = CARTESIAN_POINT ( 'NONE',  ( 0.000000000000000000, 0.000000000000000000, 7.000000000000000000 ) ) ;
#114 = EDGE_CURVE ( 'NONE', #109, #69, #230, .T. ) ;
#115 =( NAMED_UNIT ( * ) SI_UNIT ( $, .STERADIAN. ) SOLID_ANGLE_UNIT ( ) );
#116 = CIRCLE ( 'NONE', #137, 6.250000000000000000 ) ;
#117 = COORDINATED_UNIVERSAL_TIME_OFFSET ( 1, 0, .AHEAD. ) ;
#118 = PRODUCT_DEFINITION_SHAPE ( 'NONE', 'NONE',  #168 ) ;
#119 = APPROVAL_STATUS ( 'not_yet_approved' ) ;
#120 = APPLICATION_CONTEXT ( 'configuration controlled 3d designs of mechanical parts and assemblies' ) ;
#121 = EDGE_CURVE ( 'NONE', #210, #211, #37, .T. ) ;
#122 = DIRECTION ( 'NONE',  ( 1.000000000000000000, 0.000000000000000000, 0.000000000000000000 ) ) ;
#123 = CARTESIAN_POINT ( 'NONE',  ( 6.250000000000000000, 7.654042494670957606E-16, 7.000000000000000000 ) ) ;
#124 = CARTESIAN_POINT ( 'NONE',  ( 6.250000000000000000, 7.654042494670957606E-16, 107.0000000000000142 ) ) ;
#125 = LINE ( 'NONE', #241, #144 ) ;
#126 = APPROVAL_PERSON_ORGANIZATION ( #251, #8, #58 ) ;
#127 = ORIENTED_EDGE ( 'NONE', *, *, #27, .T. ) ;
#128 = EDGE_LOOP ( 'NONE', ( #91, #244 ) ) ;
#129 = DIRECTION ( 'NONE',  ( -0.000000000000000000, -0.000000000000000000, -1.000000000000000000 ) ) ;
#130 = AXIS2_PLACEMENT_3D ( 'NONE', #131, #32, #147 ) ;
#131 = CARTESIAN_POINT ( 'NONE',  ( 0.000000000000000000, 0.000000000000000000, 7.000000000000000000 ) ) ;
#132 = EDGE_CURVE ( 'NONE', #69, #211, #223, .T. ) ;
#133 = APPLICATION_PROTOCOL_DEFINITION ( 'international standard', 'config_control_design', 1994, #171 ) ;
#134 = DATE_TIME_ROLE ( 'creation_date' ) ;
#135 = APPLICATION_PROTOCOL_DEFINITION ( 'international standard', 'config_control_design', 1994, #120 ) ;
#136 = CIRCLE ( 'NONE', #87, 9.000000000000000000 ) ;
#137 = AXIS2_PLACEMENT_3D ( 'NONE', #96, #215, #90 ) ;
#138 = PERSON_AND_ORGANIZATION_ROLE ( 'creator' ) ;
#139 = CALENDAR_DATE ( 2022, 7, 7 ) ;
#140 = APPROVAL_PERSON_ORGANIZATION ( #250, #219, #70 ) ;
#141 = LOCAL_TIME ( 19, 19, 11.00000000000000000, #151 ) ;
#142 = CARTESIAN_POINT ( 'NONE',  ( 0.000000000000000000, 0.000000000000000000, 7.000000000000000000 ) ) ;
#143 = DIRECTION ( 'NONE',  ( 1.000000000000000000, 0.000000000000000000, 0.000000000000000000 ) ) ;
#144 = VECTOR ( 'NONE', #166, 1000.000000000000000 ) ;
#145 = CARTESIAN_POINT ( 'NONE',  ( 0.000000000000000000, 0.000000000000000000, 107.0000000000000142 ) ) ;
#146 = DIRECTION ( 'NONE',  ( 1.000000000000000000, 0.000000000000000000, 0.000000000000000000 ) ) ;
#147 = DIRECTION ( 'NONE',  ( -1.000000000000000000, 0.000000000000000000, 0.000000000000000000 ) ) ;
#148 = CC_DESIGN_PERSON_AND_ORGANIZATION_ASSIGNMENT ( #36, #236, ( #54 ) ) ;
#149 = ORIENTED_EDGE ( 'NONE', *, *, #27, .F. ) ;
#150 = EDGE_LOOP ( 'NONE', ( #149, #86, #13, #29 ) ) ;
#151 = COORDINATED_UNIVERSAL_TIME_OFFSET ( 1, 0, .AHEAD. ) ;
#152 = CYLINDRICAL_SURFACE ( 'NONE', #130, 9.000000000000000000 ) ;
#153 = CC_DESIGN_DATE_AND_TIME_ASSIGNMENT ( #157, #134, ( #168 ) ) ;
#154 =( NAMED_UNIT ( * ) PLANE_ANGLE_UNIT ( ) SI_UNIT ( $, .RADIAN. ) );
#155 = AXIS2_PLACEMENT_3D ( 'NONE', #145, #104, #62 ) ;
#156 = AXIS2_PLACEMENT_3D ( 'NONE', #31, #174, #196 ) ;
#157 = DATE_AND_TIME ( #175, #59 ) ;
#158 = CARTESIAN_POINT ( 'NONE',  ( -9.000000000000000000, 0.000000000000000000, 0.000000000000000000 ) ) ;
#159 = COORDINATED_UNIVERSAL_TIME_OFFSET ( 1, 0, .AHEAD. ) ;
#160 = ADVANCED_FACE ( 'NONE', ( #45, #20 ), #107, .T. ) ;
#161 = AXIS2_PLACEMENT_3D ( 'NONE', #80, #129, #35 ) ;
#162 = FACE_OUTER_BOUND ( 'NONE', #150, .T. ) ;
#163 = CARTESIAN_POINT ( 'NONE',  ( -9.000000000000000000, 0.000000000000000000, 7.000000000000000000 ) ) ;
#164 = UNCERTAINTY_MEASURE_WITH_UNIT (LENGTH_MEASURE( 1.000000000000000082E-05 ), #249, 'distance_accuracy_value', 'NONE');
#165 = DIRECTION ( 'NONE',  ( -0.000000000000000000, -0.000000000000000000, -1.000000000000000000 ) ) ;
#166 = DIRECTION ( 'NONE',  ( -0.000000000000000000, -0.000000000000000000, -1.000000000000000000 ) ) ;
#167 = EDGE_LOOP ( 'NONE', ( #7, #214 ) ) ;
#168 = PRODUCT_DEFINITION ( 'NEZNÁMÝ', '', #54, #105 ) ;
#169 = EDGE_LOOP ( 'NONE', ( #110, #66, #9, #88 ) ) ;
#170 = ORIENTED_EDGE ( 'NONE', *, *, #42, .F. ) ;
#171 = APPLICATION_CONTEXT ( 'configuration controlled 3d designs of mechanical parts and assemblies' ) ;
#172 = CARTESIAN_POINT ( 'NONE',  ( 0.000000000000000000, 0.000000000000000000, 0.000000000000000000 ) ) ;
#173 = ORIENTED_EDGE ( 'NONE', *, *, #12, .T. ) ;
#174 = DIRECTION ( 'NONE',  ( -0.000000000000000000, -0.000000000000000000, -1.000000000000000000 ) ) ;
#175 = CALENDAR_DATE ( 2022, 7, 7 ) ;
#176 = CYLINDRICAL_SURFACE ( 'NONE', #156, 6.250000000000000000 ) ;
#177 = APPROVAL_DATE_TIME ( #99, #8 ) ;
#178 = SECURITY_CLASSIFICATION_LEVEL ( 'unclassified' ) ;
#179 = AXIS2_PLACEMENT_3D ( 'NONE', #172, #33, #217 ) ;
#180 = CC_DESIGN_APPROVAL ( #219, ( #168 ) ) ;
#181 = AXIS2_PLACEMENT_3D ( 'NONE', #186, #61, #143 ) ;
#182 = FACE_OUTER_BOUND ( 'NONE', #167, .T. ) ;
#183 = VECTOR ( 'NONE', #25, 1000.000000000000000 ) ;
#184 = CARTESIAN_POINT ( 'NONE',  ( 0.000000000000000000, 0.000000000000000000, 0.000000000000000000 ) ) ;
#185 = FACE_OUTER_BOUND ( 'NONE', #169, .T. ) ;
#186 = CARTESIAN_POINT ( 'NONE',  ( 0.000000000000000000, 0.000000000000000000, 7.000000000000000000 ) ) ;
#187 = ORGANIZATION ( 'NEURÈENÝ', 'NEURÈENÝ', '' ) ;
#188 = ORIENTED_EDGE ( 'NONE', *, *, #132, .F. ) ;
#189 = DIRECTION ( 'NONE',  ( 1.000000000000000000, 0.000000000000000000, -0.000000000000000000 ) ) ;
#190 = VERTEX_POINT ( 'NONE', #123 ) ;
#191 = ORIENTED_EDGE ( 'NONE', *, *, #121, .F. ) ;
#192 = VECTOR ( 'NONE', #165, 1000.000000000000000 ) ;
#193 = EDGE_LOOP ( 'NONE', ( #170, #28, #89, #173 ) ) ;
#194 = DIRECTION ( 'NONE',  ( 0.000000000000000000, 0.000000000000000000, 1.000000000000000000 ) ) ;
#195 = CARTESIAN_POINT ( 'NONE',  ( -6.250000000000000000, 0.000000000000000000, 107.0000000000000142 ) ) ;
#196 = DIRECTION ( 'NONE',  ( -1.000000000000000000, 0.000000000000000000, 0.000000000000000000 ) ) ;
#197 = ADVANCED_FACE ( 'NONE', ( #182 ), #1, .T. ) ;
#198 = DIRECTION ( 'NONE',  ( 0.000000000000000000, 0.000000000000000000, 1.000000000000000000 ) ) ;
#199 = APPROVAL_ROLE ( '' ) ;
#200 = DATE_TIME_ROLE ( 'classification_date' ) ;
#201 = ADVANCED_FACE ( 'NONE', ( #185 ), #3, .T. ) ;
#202 = COORDINATED_UNIVERSAL_TIME_OFFSET ( 1, 0, .AHEAD. ) ;
#203 = DIRECTION ( 'NONE',  ( 0.000000000000000000, 0.000000000000000000, 1.000000000000000000 ) ) ;
#204 = CARTESIAN_POINT ( 'NONE',  ( 6.250000000000000000, 7.654042494670957606E-16, 107.0000000000000142 ) ) ;
#205 = AXIS2_PLACEMENT_3D ( 'NONE', #19, #100, #242 ) ;
#206 = CC_DESIGN_APPROVAL ( #8, ( #218 ) ) ;
#207 = FACE_OUTER_BOUND ( 'NONE', #50, .T. ) ;
#208 = CARTESIAN_POINT ( 'NONE',  ( 9.000000000000000000, 1.102182119232617714E-15, 7.000000000000000000 ) ) ;
#209 = DIRECTION ( 'NONE',  ( -0.000000000000000000, -0.000000000000000000, -1.000000000000000000 ) ) ;
#210 = VERTEX_POINT ( 'NONE', #158 ) ;
#211 = VERTEX_POINT ( 'NONE', #213 ) ;
#212 = ORIENTED_EDGE ( 'NONE', *, *, #71, .T. ) ;
#213 = CARTESIAN_POINT ( 'NONE',  ( 9.000000000000000000, 1.102182119232617714E-15, 0.000000000000000000 ) ) ;
#214 = ORIENTED_EDGE ( 'NONE', *, *, #245, .T. ) ;
#215 = DIRECTION ( 'NONE',  ( 0.000000000000000000, 0.000000000000000000, 1.000000000000000000 ) ) ;
#216 = COORDINATED_UNIVERSAL_TIME_OFFSET ( 1, 0, .AHEAD. ) ;
#217 = DIRECTION ( 'NONE',  ( 1.000000000000000000, 0.000000000000000000, 0.000000000000000000 ) ) ;
#218 = SECURITY_CLASSIFICATION ( '', '', #178 ) ;
#219 = APPROVAL ( #68, 'NEURÈENÝ' ) ;
#220 = PERSON_AND_ORGANIZATION ( #254, #187 ) ;
#221 = PRODUCT ( 'd063', 'd063', '', ( #246 ) ) ;
#222 = PRODUCT_RELATED_PRODUCT_CATEGORY ( 'detail', '', ( #221 ) ) ;
#223 = LINE ( 'NONE', #227, #183 ) ;
#224 = DIRECTION ( 'NONE',  ( 0.000000000000000000, 0.000000000000000000, 1.000000000000000000 ) ) ;
#225 = DIRECTION ( 'NONE',  ( 0.000000000000000000, 0.000000000000000000, 1.000000000000000000 ) ) ;
#226 = EDGE_CURVE ( 'NONE', #211, #210, #67, .T. ) ;
#227 = CARTESIAN_POINT ( 'NONE',  ( 9.000000000000000000, 1.102182119232617714E-15, 7.000000000000000000 ) ) ;
#228 = AXIS2_PLACEMENT_3D ( 'NONE', #14, #198, #94 ) ;
#229 = VERTEX_POINT ( 'NONE', #195 ) ;
#230 = CIRCLE ( 'NONE', #4, 9.000000000000000000 ) ;
#231 = PERSON_AND_ORGANIZATION ( #254, #187 ) ;
#232 = AXIS2_PLACEMENT_3D ( 'NONE', #184, #243, #146 ) ;
#233 = PERSON_AND_ORGANIZATION_ROLE ( 'creator' ) ;
#234 = PERSON_AND_ORGANIZATION ( #254, #187 ) ;
#235 = CALENDAR_DATE ( 2022, 7, 7 ) ;
#236 = PERSON_AND_ORGANIZATION_ROLE ( 'design_supplier' ) ;
#237 = ADVANCED_BREP_SHAPE_REPRESENTATION ( 'd063', ( #108, #179 ), #106 ) ;
#238 = LOCAL_TIME ( 19, 19, 11.00000000000000000, #117 ) ;
#239 = CC_DESIGN_PERSON_AND_ORGANIZATION_ASSIGNMENT ( #38, #252, ( #218 ) ) ;
#240 = CARTESIAN_POINT ( 'NONE',  ( 0.000000000000000000, 0.000000000000000000, 7.000000000000000000 ) ) ;
#241 = CARTESIAN_POINT ( 'NONE',  ( -6.250000000000000000, 0.000000000000000000, 107.0000000000000142 ) ) ;
#242 = DIRECTION ( 'NONE',  ( 1.000000000000000000, 0.000000000000000000, -0.000000000000000000 ) ) ;
#243 = DIRECTION ( 'NONE',  ( 0.000000000000000000, 0.000000000000000000, 1.000000000000000000 ) ) ;
#244 = ORIENTED_EDGE ( 'NONE', *, *, #21, .F. ) ;
#245 = EDGE_CURVE ( 'NONE', #85, #229, #116, .T. ) ;
#246 = MECHANICAL_CONTEXT ( 'NONE', #120, 'mechanical' ) ;
#247 = FACE_OUTER_BOUND ( 'NONE', #6, .T. ) ;
#248 = ADVANCED_FACE ( 'NONE', ( #15 ), #176, .T. ) ;
#249 =( LENGTH_UNIT ( ) NAMED_UNIT ( * ) SI_UNIT ( .MILLI., .METRE. ) );
#250 = PERSON_AND_ORGANIZATION ( #254, #187 ) ;
#251 = PERSON_AND_ORGANIZATION ( #254, #187 ) ;
#252 = PERSON_AND_ORGANIZATION_ROLE ( 'classification_officer' ) ;
#253 = CALENDAR_DATE ( 2022, 7, 7 ) ;
#254 = PERSON ( 'NEURÈENÝ', 'NEURÈENÝ', 'NEURÈENÝ', ('NEURÈENÝ'), ('NEURÈENÝ'), ('NEURÈENÝ') ) ;
#255 = CARTESIAN_POINT ( 'NONE',  ( 0.000000000000000000, 0.000000000000000000, 107.0000000000000142 ) ) ;
ENDSEC;
END-ISO-10303-21;
