ISO-10303-21;
HEADER;
FILE_DESCRIPTION (( 'STEP AP203' ),
    '1' );
FILE_NAME ('c1b5.STEP',
    '2022-07-07T17:34:51',
    ( '' ),
    ( '' ),
    'SwSTEP 2.0',
    'SolidWorks 2019',
    '' );
FILE_SCHEMA (( 'CONFIG_CONTROL_DESIGN' ));
ENDSEC;

DATA;
#1 = DIRECTION ( 'NONE',  ( 1.000000000000000000, 0.000000000000000000, -0.000000000000000000 ) ) ;
#2 = AXIS2_PLACEMENT_3D ( 'NONE', #196, #131, #130 ) ;
#3 = SECURITY_CLASSIFICATION_LEVEL ( 'unclassified' ) ;
#4 = ADVANCED_FACE ( 'NONE', ( #65 ), #229, .T. ) ;
#5 = COORDINATED_UNIVERSAL_TIME_OFFSET ( 1, 0, .AHEAD. ) ;
#6 = AXIS2_PLACEMENT_3D ( 'NONE', #254, #194, #22 ) ;
#7 = PERSON_AND_ORGANIZATION ( #201, #37 ) ;
#8 = ORIENTED_EDGE ( 'NONE', *, *, #182, .F. ) ;
#9 = SECURITY_CLASSIFICATION ( '', '', #3 ) ;
#10 = CYLINDRICAL_SURFACE ( 'NONE', #38, 3.750000000000000000 ) ;
#11 = ORIENTED_EDGE ( 'NONE', *, *, #92, .F. ) ;
#12 = CARTESIAN_POINT ( 'NONE',  ( 0.000000000000000000, 0.000000000000000000, 5.000000000000000000 ) ) ;
#13 = DIRECTION ( 'NONE',  ( -1.000000000000000000, 0.000000000000000000, 0.000000000000000000 ) ) ;
#14 = EDGE_CURVE ( 'NONE', #124, #70, #138, .T. ) ;
#15 = LOCAL_TIME ( 19, 34, 51.00000000000000000, #5 ) ;
#16 = ORIENTED_EDGE ( 'NONE', *, *, #20, .F. ) ;
#17 = DIRECTION ( 'NONE',  ( 1.000000000000000000, 0.000000000000000000, -0.000000000000000000 ) ) ;
#18 = VECTOR ( 'NONE', #103, 1000.000000000000000 ) ;
#19 = DIRECTION ( 'NONE',  ( -0.000000000000000000, -0.000000000000000000, -1.000000000000000000 ) ) ;
#20 = EDGE_CURVE ( 'NONE', #105, #227, #33, .T. ) ;
#21 = ADVANCED_FACE ( 'NONE', ( #249, #202 ), #29, .T. ) ;
#22 = DIRECTION ( 'NONE',  ( 1.000000000000000000, 0.000000000000000000, 0.000000000000000000 ) ) ;
#23 = CARTESIAN_POINT ( 'NONE',  ( 0.000000000000000000, 0.000000000000000000, 0.000000000000000000 ) ) ;
#24 = ORIENTED_EDGE ( 'NONE', *, *, #119, .F. ) ;
#25 = COORDINATED_UNIVERSAL_TIME_OFFSET ( 1, 0, .AHEAD. ) ;
#26 = EDGE_LOOP ( 'NONE', ( #192, #48, #204, #24 ) ) ;
#27 = EDGE_CURVE ( 'NONE', #82, #124, #148, .T. ) ;
#28 = SHAPE_DEFINITION_REPRESENTATION ( #237, #78 ) ;
#29 = PLANE ( 'NONE',  #123 ) ;
#30 = APPROVAL ( #44, 'NEURÈENÝ' ) ;
#31 = CARTESIAN_POINT ( 'NONE',  ( -3.750000000000000000, 0.000000000000000000, 205.0000000000000284 ) ) ;
#32 = CC_DESIGN_APPROVAL ( #170, ( #40 ) ) ;
#33 = LINE ( 'NONE', #50, #221 ) ;
#34 = CARTESIAN_POINT ( 'NONE',  ( 0.000000000000000000, 0.000000000000000000, 205.0000000000000284 ) ) ;
#35 = CARTESIAN_POINT ( 'NONE',  ( 6.000000000000000888, 7.347880794884120722E-16, 5.000000000000000000 ) ) ;
#36 = VERTEX_POINT ( 'NONE', #31 ) ;
#37 = ORGANIZATION ( 'NEURÈENÝ', 'NEURÈENÝ', '' ) ;
#38 = AXIS2_PLACEMENT_3D ( 'NONE', #34, #49, #250 ) ;
#39 = FACE_OUTER_BOUND ( 'NONE', #244, .T. ) ;
#40 = PRODUCT_DEFINITION ( 'NEZNÁMÝ', '', #199, #226 ) ;
#41 = APPROVAL_ROLE ( '' ) ;
#42 = APPROVAL_DATE_TIME ( #140, #170 ) ;
#43 = CALENDAR_DATE ( 2022, 7, 7 ) ;
#44 = APPROVAL_STATUS ( 'not_yet_approved' ) ;
#45 = EDGE_LOOP ( 'NONE', ( #228, #99, #59, #16 ) ) ;
#46 = ORIENTED_EDGE ( 'NONE', *, *, #135, .F. ) ;
#47 = APPROVAL_STATUS ( 'not_yet_approved' ) ;
#48 = ORIENTED_EDGE ( 'NONE', *, *, #27, .T. ) ;
#49 = DIRECTION ( 'NONE',  ( -0.000000000000000000, -0.000000000000000000, -1.000000000000000000 ) ) ;
#50 = CARTESIAN_POINT ( 'NONE',  ( -6.000000000000000888, 0.000000000000000000, 5.000000000000000000 ) ) ;
#51 = CARTESIAN_POINT ( 'NONE',  ( 0.000000000000000000, 0.000000000000000000, 5.000000000000000000 ) ) ;
#52 = DIRECTION ( 'NONE',  ( 0.000000000000000000, 0.000000000000000000, 1.000000000000000000 ) ) ;
#53 = CC_DESIGN_DATE_AND_TIME_ASSIGNMENT ( #55, #114, ( #9 ) ) ;
#54 = AXIS2_PLACEMENT_3D ( 'NONE', #154, #255, #1 ) ;
#55 = DATE_AND_TIME ( #43, #210 ) ;
#56 = DATE_AND_TIME ( #216, #15 ) ;
#57 = CLOSED_SHELL ( 'NONE', ( #60, #109, #4, #21, #243, #66, #212 ) ) ;
#58 = APPROVAL_PERSON_ORGANIZATION ( #81, #170, #177 ) ;
#59 = ORIENTED_EDGE ( 'NONE', *, *, #117, .T. ) ;
#60 = ADVANCED_FACE ( 'NONE', ( #187 ), #10, .T. ) ;
#61 = EDGE_CURVE ( 'NONE', #105, #217, #128, .T. ) ;
#62 = DIRECTION ( 'NONE',  ( 0.000000000000000000, 0.000000000000000000, 1.000000000000000000 ) ) ;
#63 = DIRECTION ( 'NONE',  ( 1.000000000000000000, 0.000000000000000000, 0.000000000000000000 ) ) ;
#64 = CC_DESIGN_APPROVAL ( #235, ( #199 ) ) ;
#65 = FACE_OUTER_BOUND ( 'NONE', #183, .T. ) ;
#66 = ADVANCED_FACE ( 'NONE', ( #147 ), #86, .T. ) ;
#67 = ORIENTED_EDGE ( 'NONE', *, *, #119, .T. ) ;
#68 = DIRECTION ( 'NONE',  ( 0.000000000000000000, 0.000000000000000000, 1.000000000000000000 ) ) ;
#69 = CARTESIAN_POINT ( 'NONE',  ( 3.750000000000000000, 4.592425496802573972E-16, 205.0000000000000284 ) ) ;
#70 = VERTEX_POINT ( 'NONE', #245 ) ;
#71 = CC_DESIGN_DATE_AND_TIME_ASSIGNMENT ( #179, #113, ( #40 ) ) ;
#72 = DIRECTION ( 'NONE',  ( 0.000000000000000000, 0.000000000000000000, 1.000000000000000000 ) ) ;
#73 = EDGE_LOOP ( 'NONE', ( #166, #11, #67, #106 ) ) ;
#74 = CC_DESIGN_PERSON_AND_ORGANIZATION_ASSIGNMENT ( #225, #215, ( #9 ) ) ;
#75 = DIRECTION ( 'NONE',  ( -0.000000000000000000, -0.000000000000000000, -1.000000000000000000 ) ) ;
#76 = CC_DESIGN_PERSON_AND_ORGANIZATION_ASSIGNMENT ( #7, #79, ( #222 ) ) ;
#77 = CARTESIAN_POINT ( 'NONE',  ( 6.000000000000000888, 7.347880794884120722E-16, 0.000000000000000000 ) ) ;
#78 = ADVANCED_BREP_SHAPE_REPRESENTATION ( 'c1b5', ( #142, #90 ), #145 ) ;
#79 = PERSON_AND_ORGANIZATION_ROLE ( 'design_owner' ) ;
#80 = AXIS2_PLACEMENT_3D ( 'NONE', #233, #173, #107 ) ;
#81 = PERSON_AND_ORGANIZATION ( #201, #37 ) ;
#82 = VERTEX_POINT ( 'NONE', #69 ) ;
#83 = DIRECTION ( 'NONE',  ( 0.000000000000000000, 0.000000000000000000, 1.000000000000000000 ) ) ;
#84 = ORIENTED_EDGE ( 'NONE', *, *, #20, .T. ) ;
#85 = DIRECTION ( 'NONE',  ( 1.000000000000000000, 0.000000000000000000, 0.000000000000000000 ) ) ;
#86 = CYLINDRICAL_SURFACE ( 'NONE', #172, 3.750000000000000000 ) ;
#87 = ORIENTED_EDGE ( 'NONE', *, *, #186, .T. ) ;
#88 = CARTESIAN_POINT ( 'NONE',  ( 0.000000000000000000, 0.000000000000000000, 205.0000000000000284 ) ) ;
#89 = CARTESIAN_POINT ( 'NONE',  ( 3.750000000000000000, 4.592425496802573972E-16, 5.000000000000000000 ) ) ;
#90 = AXIS2_PLACEMENT_3D ( 'NONE', #23, #83, #63 ) ;
#91 = EDGE_CURVE ( 'NONE', #227, #248, #180, .T. ) ;
#92 = EDGE_CURVE ( 'NONE', #36, #82, #241, .T. ) ;
#93 = LINE ( 'NONE', #35, #175 ) ;
#94 = DIRECTION ( 'NONE',  ( 1.000000000000000000, 0.000000000000000000, 0.000000000000000000 ) ) ;
#95 = DIRECTION ( 'NONE',  ( 0.000000000000000000, 0.000000000000000000, 1.000000000000000000 ) ) ;
#96 = PERSON_AND_ORGANIZATION ( #201, #37 ) ;
#97 = AXIS2_PLACEMENT_3D ( 'NONE', #236, #72, #94 ) ;
#98 = APPROVAL_PERSON_ORGANIZATION ( #160, #30, #41 ) ;
#99 = ORIENTED_EDGE ( 'NONE', *, *, #182, .T. ) ;
#100 = ORIENTED_EDGE ( 'NONE', *, *, #61, .F. ) ;
#101 = CALENDAR_DATE ( 2022, 7, 7 ) ;
#102 = CARTESIAN_POINT ( 'NONE',  ( 0.000000000000000000, 0.000000000000000000, 5.000000000000000000 ) ) ;
#103 = DIRECTION ( 'NONE',  ( -0.000000000000000000, -0.000000000000000000, -1.000000000000000000 ) ) ;
#104 = EDGE_CURVE ( 'NONE', #217, #105, #213, .T. ) ;
#105 = VERTEX_POINT ( 'NONE', #134 ) ;
#106 = ORIENTED_EDGE ( 'NONE', *, *, #135, .T. ) ;
#107 = DIRECTION ( 'NONE',  ( 1.000000000000000000, 0.000000000000000000, 0.000000000000000000 ) ) ;
#108 = AXIS2_PLACEMENT_3D ( 'NONE', #149, #52, #152 ) ;
#109 = ADVANCED_FACE ( 'NONE', ( #110 ), #251, .T. ) ;
#110 = FACE_OUTER_BOUND ( 'NONE', #45, .T. ) ;
#111 = CARTESIAN_POINT ( 'NONE',  ( 0.000000000000000000, 0.000000000000000000, 0.000000000000000000 ) ) ;
#112 = PERSON_AND_ORGANIZATION_ROLE ( 'creator' ) ;
#113 = DATE_TIME_ROLE ( 'creation_date' ) ;
#114 = DATE_TIME_ROLE ( 'classification_date' ) ;
#115 = COORDINATED_UNIVERSAL_TIME_OFFSET ( 1, 0, .AHEAD. ) ;
#116 = AXIS2_PLACEMENT_3D ( 'NONE', #12, #62, #231 ) ;
#117 = EDGE_CURVE ( 'NONE', #248, #227, #178, .T. ) ;
#118 = UNCERTAINTY_MEASURE_WITH_UNIT (LENGTH_MEASURE( 1.000000000000000082E-05 ), #232, 'distance_accuracy_value', 'NONE');
#119 = EDGE_CURVE ( 'NONE', #36, #70, #230, .T. ) ;
#120 = AXIS2_PLACEMENT_3D ( 'NONE', #208, #174, #195 ) ;
#121 = CARTESIAN_POINT ( 'NONE',  ( 0.000000000000000000, 0.000000000000000000, 5.000000000000000000 ) ) ;
#122 = PERSON_AND_ORGANIZATION_ROLE ( 'creator' ) ;
#123 = AXIS2_PLACEMENT_3D ( 'NONE', #102, #143, #185 ) ;
#124 = VERTEX_POINT ( 'NONE', #89 ) ;
#125 = EDGE_LOOP ( 'NONE', ( #46, #137 ) ) ;
#126 = ORIENTED_EDGE ( 'NONE', *, *, #104, .T. ) ;
#127 = DIRECTION ( 'NONE',  ( -0.000000000000000000, -0.000000000000000000, -1.000000000000000000 ) ) ;
#128 = CIRCLE ( 'NONE', #159, 6.000000000000000888 ) ;
#129 = APPLICATION_CONTEXT ( 'configuration controlled 3d designs of mechanical parts and assemblies' ) ;
#130 = DIRECTION ( 'NONE',  ( 1.000000000000000000, 0.000000000000000000, 0.000000000000000000 ) ) ;
#131 = DIRECTION ( 'NONE',  ( 0.000000000000000000, 0.000000000000000000, 1.000000000000000000 ) ) ;
#132 = APPROVAL_PERSON_ORGANIZATION ( #240, #235, #203 ) ;
#133 = PRODUCT_RELATED_PRODUCT_CATEGORY ( 'detail', '', ( #222 ) ) ;
#134 = CARTESIAN_POINT ( 'NONE',  ( -6.000000000000000888, 0.000000000000000000, 5.000000000000000000 ) ) ;
#135 = EDGE_CURVE ( 'NONE', #70, #124, #223, .T. ) ;
#136 = MECHANICAL_CONTEXT ( 'NONE', #129, 'mechanical' ) ;
#137 = ORIENTED_EDGE ( 'NONE', *, *, #14, .F. ) ;
#138 = CIRCLE ( 'NONE', #116, 3.750000000000000000 ) ;
#139 = APPROVAL_STATUS ( 'not_yet_approved' ) ;
#140 = DATE_AND_TIME ( #158, #206 ) ;
#141 = AXIS2_PLACEMENT_3D ( 'NONE', #111, #95, #17 ) ;
#142 = MANIFOLD_SOLID_BREP ( 'Pøidat vysunutím3', #57 ) ;
#143 = DIRECTION ( 'NONE',  ( 0.000000000000000000, 0.000000000000000000, 1.000000000000000000 ) ) ;
#144 = PERSON_AND_ORGANIZATION_ROLE ( 'design_supplier' ) ;
#145 =( GEOMETRIC_REPRESENTATION_CONTEXT ( 3 ) GLOBAL_UNCERTAINTY_ASSIGNED_CONTEXT ( ( #118 ) ) GLOBAL_UNIT_ASSIGNED_CONTEXT ( ( #232, #234, #171 ) ) REPRESENTATION_CONTEXT ( 'NONE', 'WORKASPACE' ) );
#146 = DIRECTION ( 'NONE',  ( -0.000000000000000000, -0.000000000000000000, -1.000000000000000000 ) ) ;
#147 = FACE_OUTER_BOUND ( 'NONE', #73, .T. ) ;
#148 = LINE ( 'NONE', #165, #18 ) ;
#149 = CARTESIAN_POINT ( 'NONE',  ( 0.000000000000000000, 0.000000000000000000, 0.000000000000000000 ) ) ;
#150 = DIRECTION ( 'NONE',  ( -0.000000000000000000, -0.000000000000000000, -1.000000000000000000 ) ) ;
#151 = CARTESIAN_POINT ( 'NONE',  ( -3.750000000000000000, 0.000000000000000000, 205.0000000000000284 ) ) ;
#152 = DIRECTION ( 'NONE',  ( 1.000000000000000000, 0.000000000000000000, 0.000000000000000000 ) ) ;
#153 = CC_DESIGN_SECURITY_CLASSIFICATION ( #9, ( #199 ) ) ;
#154 = CARTESIAN_POINT ( 'NONE',  ( 0.000000000000000000, 0.000000000000000000, 205.0000000000000284 ) ) ;
#155 = CC_DESIGN_PERSON_AND_ORGANIZATION_ASSIGNMENT ( #242, #112, ( #199 ) ) ;
#156 = PERSON_AND_ORGANIZATION ( #201, #37 ) ;
#157 = VECTOR ( 'NONE', #127, 1000.000000000000000 ) ;
#158 = CALENDAR_DATE ( 2022, 7, 7 ) ;
#159 = AXIS2_PLACEMENT_3D ( 'NONE', #189, #68, #85 ) ;
#160 = PERSON_AND_ORGANIZATION ( #201, #37 ) ;
#161 = COORDINATED_UNIVERSAL_TIME_OFFSET ( 1, 0, .AHEAD. ) ;
#162 = EDGE_LOOP ( 'NONE', ( #164, #87 ) ) ;
#163 = CC_DESIGN_APPROVAL ( #30, ( #9 ) ) ;
#164 = ORIENTED_EDGE ( 'NONE', *, *, #92, .T. ) ;
#165 = CARTESIAN_POINT ( 'NONE',  ( 3.750000000000000000, 4.592425496802573972E-16, 205.0000000000000284 ) ) ;
#166 = ORIENTED_EDGE ( 'NONE', *, *, #27, .F. ) ;
#167 = DIRECTION ( 'NONE',  ( -0.000000000000000000, -0.000000000000000000, -1.000000000000000000 ) ) ;
#168 = APPLICATION_CONTEXT ( 'configuration controlled 3d designs of mechanical parts and assemblies' ) ;
#169 = PLANE ( 'NONE',  #54 ) ;
#170 = APPROVAL ( #47, 'NEURÈENÝ' ) ;
#171 =( NAMED_UNIT ( * ) SI_UNIT ( $, .STERADIAN. ) SOLID_ANGLE_UNIT ( ) );
#172 = AXIS2_PLACEMENT_3D ( 'NONE', #88, #167, #252 ) ;
#173 = DIRECTION ( 'NONE',  ( 0.000000000000000000, 0.000000000000000000, 1.000000000000000000 ) ) ;
#174 = DIRECTION ( 'NONE',  ( 0.000000000000000000, 0.000000000000000000, 1.000000000000000000 ) ) ;
#175 = VECTOR ( 'NONE', #75, 1000.000000000000000 ) ;
#176 = APPLICATION_PROTOCOL_DEFINITION ( 'international standard', 'config_control_design', 1994, #129 ) ;
#177 = APPROVAL_ROLE ( '' ) ;
#178 = CIRCLE ( 'NONE', #108, 6.000000000000000888 ) ;
#179 = DATE_AND_TIME ( #220, #239 ) ;
#180 = CIRCLE ( 'NONE', #2, 6.000000000000000888 ) ;
#181 = ORIENTED_EDGE ( 'NONE', *, *, #61, .T. ) ;
#182 = EDGE_CURVE ( 'NONE', #217, #248, #93, .T. ) ;
#183 = EDGE_LOOP ( 'NONE', ( #8, #100, #84, #190 ) ) ;
#184 = CC_DESIGN_PERSON_AND_ORGANIZATION_ASSIGNMENT ( #156, #144, ( #199 ) ) ;
#185 = DIRECTION ( 'NONE',  ( 1.000000000000000000, 0.000000000000000000, -0.000000000000000000 ) ) ;
#186 = EDGE_CURVE ( 'NONE', #82, #36, #188, .T. ) ;
#187 = FACE_OUTER_BOUND ( 'NONE', #26, .T. ) ;
#188 = CIRCLE ( 'NONE', #80, 3.750000000000000000 ) ;
#189 = CARTESIAN_POINT ( 'NONE',  ( 0.000000000000000000, 0.000000000000000000, 5.000000000000000000 ) ) ;
#190 = ORIENTED_EDGE ( 'NONE', *, *, #91, .T. ) ;
#191 = CARTESIAN_POINT ( 'NONE',  ( -6.000000000000000888, 0.000000000000000000, 0.000000000000000000 ) ) ;
#192 = ORIENTED_EDGE ( 'NONE', *, *, #186, .F. ) ;
#193 = AXIS2_PLACEMENT_3D ( 'NONE', #51, #19, #13 ) ;
#194 = DIRECTION ( 'NONE',  ( 0.000000000000000000, 0.000000000000000000, 1.000000000000000000 ) ) ;
#195 = DIRECTION ( 'NONE',  ( 1.000000000000000000, 0.000000000000000000, 0.000000000000000000 ) ) ;
#196 = CARTESIAN_POINT ( 'NONE',  ( 0.000000000000000000, 0.000000000000000000, 0.000000000000000000 ) ) ;
#197 = DATE_AND_TIME ( #101, #247 ) ;
#198 = CC_DESIGN_PERSON_AND_ORGANIZATION_ASSIGNMENT ( #96, #122, ( #40 ) ) ;
#199 = PRODUCT_DEFINITION_FORMATION_WITH_SPECIFIED_SOURCE ( 'LIBOVOLNÝ', '', #222, .NOT_KNOWN. ) ;
#200 = APPROVAL_DATE_TIME ( #197, #30 ) ;
#201 = PERSON ( 'NEURÈENÝ', 'NEURÈENÝ', 'NEURÈENÝ', ('NEURÈENÝ'), ('NEURÈENÝ'), ('NEURÈENÝ') ) ;
#202 = FACE_OUTER_BOUND ( 'NONE', #205, .T. ) ;
#203 = APPROVAL_ROLE ( '' ) ;
#204 = ORIENTED_EDGE ( 'NONE', *, *, #14, .T. ) ;
#205 = EDGE_LOOP ( 'NONE', ( #181, #126 ) ) ;
#206 = LOCAL_TIME ( 19, 34, 51.00000000000000000, #161 ) ;
#207 = DIRECTION ( 'NONE',  ( -1.000000000000000000, 0.000000000000000000, 0.000000000000000000 ) ) ;
#208 = CARTESIAN_POINT ( 'NONE',  ( 0.000000000000000000, 0.000000000000000000, 5.000000000000000000 ) ) ;
#209 = ORIENTED_EDGE ( 'NONE', *, *, #117, .F. ) ;
#210 = LOCAL_TIME ( 19, 34, 51.00000000000000000, #25 ) ;
#211 = FACE_OUTER_BOUND ( 'NONE', #162, .T. ) ;
#212 = ADVANCED_FACE ( 'NONE', ( #211 ), #169, .T. ) ;
#213 = CIRCLE ( 'NONE', #97, 6.000000000000000888 ) ;
#214 = CARTESIAN_POINT ( 'NONE',  ( 6.000000000000000888, 7.347880794884120722E-16, 5.000000000000000000 ) ) ;
#215 = PERSON_AND_ORGANIZATION_ROLE ( 'classification_officer' ) ;
#216 = CALENDAR_DATE ( 2022, 7, 7 ) ;
#217 = VERTEX_POINT ( 'NONE', #214 ) ;
#218 = AXIS2_PLACEMENT_3D ( 'NONE', #121, #150, #207 ) ;
#219 = COORDINATED_UNIVERSAL_TIME_OFFSET ( 1, 0, .AHEAD. ) ;
#220 = CALENDAR_DATE ( 2022, 7, 7 ) ;
#221 = VECTOR ( 'NONE', #146, 1000.000000000000000 ) ;
#222 = PRODUCT ( 'c1b5', 'c1b5', '', ( #136 ) ) ;
#223 = CIRCLE ( 'NONE', #120, 3.750000000000000000 ) ;
#224 = ORIENTED_EDGE ( 'NONE', *, *, #91, .F. ) ;
#225 = PERSON_AND_ORGANIZATION ( #201, #37 ) ;
#226 = DESIGN_CONTEXT ( 'detailed design', #168, 'design' ) ;
#227 = VERTEX_POINT ( 'NONE', #191 ) ;
#228 = ORIENTED_EDGE ( 'NONE', *, *, #104, .F. ) ;
#229 = CYLINDRICAL_SURFACE ( 'NONE', #218, 6.000000000000000888 ) ;
#230 = LINE ( 'NONE', #151, #157 ) ;
#231 = DIRECTION ( 'NONE',  ( 1.000000000000000000, 0.000000000000000000, 0.000000000000000000 ) ) ;
#232 =( LENGTH_UNIT ( ) NAMED_UNIT ( * ) SI_UNIT ( .MILLI., .METRE. ) );
#233 = CARTESIAN_POINT ( 'NONE',  ( 0.000000000000000000, 0.000000000000000000, 205.0000000000000284 ) ) ;
#234 =( NAMED_UNIT ( * ) PLANE_ANGLE_UNIT ( ) SI_UNIT ( $, .RADIAN. ) );
#235 = APPROVAL ( #139, 'NEURÈENÝ' ) ;
#236 = CARTESIAN_POINT ( 'NONE',  ( 0.000000000000000000, 0.000000000000000000, 5.000000000000000000 ) ) ;
#237 = PRODUCT_DEFINITION_SHAPE ( 'NONE', 'NONE',  #40 ) ;
#238 = APPROVAL_DATE_TIME ( #56, #235 ) ;
#239 = LOCAL_TIME ( 19, 34, 51.00000000000000000, #219 ) ;
#240 = PERSON_AND_ORGANIZATION ( #201, #37 ) ;
#241 = CIRCLE ( 'NONE', #6, 3.750000000000000000 ) ;
#242 = PERSON_AND_ORGANIZATION ( #201, #37 ) ;
#243 = ADVANCED_FACE ( 'NONE', ( #39 ), #253, .F. ) ;
#244 = EDGE_LOOP ( 'NONE', ( #224, #209 ) ) ;
#245 = CARTESIAN_POINT ( 'NONE',  ( -3.750000000000000000, 0.000000000000000000, 5.000000000000000000 ) ) ;
#246 = APPLICATION_PROTOCOL_DEFINITION ( 'international standard', 'config_control_design', 1994, #168 ) ;
#247 = LOCAL_TIME ( 19, 34, 51.00000000000000000, #115 ) ;
#248 = VERTEX_POINT ( 'NONE', #77 ) ;
#249 = FACE_BOUND ( 'NONE', #125, .T. ) ;
#250 = DIRECTION ( 'NONE',  ( -1.000000000000000000, 0.000000000000000000, 0.000000000000000000 ) ) ;
#251 = CYLINDRICAL_SURFACE ( 'NONE', #193, 6.000000000000000888 ) ;
#252 = DIRECTION ( 'NONE',  ( -1.000000000000000000, 0.000000000000000000, 0.000000000000000000 ) ) ;
#253 = PLANE ( 'NONE',  #141 ) ;
#254 = CARTESIAN_POINT ( 'NONE',  ( 0.000000000000000000, 0.000000000000000000, 205.0000000000000284 ) ) ;
#255 = DIRECTION ( 'NONE',  ( 0.000000000000000000, 0.000000000000000000, 1.000000000000000000 ) ) ;
ENDSEC;
END-ISO-10303-21;
