ISO-10303-21;
HEADER;
FILE_DESCRIPTION (( 'STEP AP203' ),
    '1' );
FILE_NAME ('5e83.STEP',
    '2023-02-13T14:50:25',
    ( '' ),
    ( '' ),
    'SwSTEP 2.0',
    'SolidWorks 2019',
    '' );
FILE_SCHEMA (( 'CONFIG_CONTROL_DESIGN' ));
ENDSEC;

DATA;
#1 = EDGE_LOOP ( 'NONE', ( #249, #166 ) ) ;
#2 = APPROVAL_STATUS ( 'not_yet_approved' ) ;
#3 = AXIS2_PLACEMENT_3D ( 'NONE', #121, #157, #48 ) ;
#4 = CYLINDRICAL_SURFACE ( 'NONE', #129, 6.000000000000000888 ) ;
#5 = FACE_OUTER_BOUND ( 'NONE', #250, .T. ) ;
#6 = DATE_AND_TIME ( #69, #232 ) ;
#7 = FACE_OUTER_BOUND ( 'NONE', #35, .T. ) ;
#8 = DIRECTION ( 'NONE',  ( 1.000000000000000000, 0.000000000000000000, 0.000000000000000000 ) ) ;
#9 = ADVANCED_FACE ( 'NONE', ( #239, #198 ), #10, .T. ) ;
#10 = PLANE ( 'NONE',  #116 ) ;
#11 = LOCAL_TIME ( 15, 50, 25.00000000000000000, #62 ) ;
#12 = ORIENTED_EDGE ( 'NONE', *, *, #15, .F. ) ;
#13 =( NAMED_UNIT ( * ) SI_UNIT ( $, .STERADIAN. ) SOLID_ANGLE_UNIT ( ) );
#14 = APPROVAL_PERSON_ORGANIZATION ( #197, #123, #67 ) ;
#15 = EDGE_CURVE ( 'NONE', #226, #154, #215, .T. ) ;
#16 = ORIENTED_EDGE ( 'NONE', *, *, #186, .T. ) ;
#17 = DIRECTION ( 'NONE',  ( 0.000000000000000000, 0.000000000000000000, 1.000000000000000000 ) ) ;
#18 = CIRCLE ( 'NONE', #191, 3.750000000000000000 ) ;
#19 = CC_DESIGN_PERSON_AND_ORGANIZATION_ASSIGNMENT ( #31, #112, ( #45 ) ) ;
#20 = CC_DESIGN_APPROVAL ( #40, ( #143 ) ) ;
#21 = ORIENTED_EDGE ( 'NONE', *, *, #27, .F. ) ;
#22 = SECURITY_CLASSIFICATION ( '', '', #59 ) ;
#23 = ORIENTED_EDGE ( 'NONE', *, *, #184, .F. ) ;
#24 = VERTEX_POINT ( 'NONE', #44 ) ;
#25 = PERSON_AND_ORGANIZATION ( #96, #171 ) ;
#26 = CIRCLE ( 'NONE', #119, 3.750000000000000000 ) ;
#27 = EDGE_CURVE ( 'NONE', #131, #226, #182, .T. ) ;
#28 = FACE_OUTER_BOUND ( 'NONE', #179, .T. ) ;
#29 = DIRECTION ( 'NONE',  ( -0.000000000000000000, -0.000000000000000000, -1.000000000000000000 ) ) ;
#30 = AXIS2_PLACEMENT_3D ( 'NONE', #220, #222, #251 ) ;
#31 = PERSON_AND_ORGANIZATION ( #96, #171 ) ;
#32 = APPLICATION_PROTOCOL_DEFINITION ( 'international standard', 'config_control_design', 1994, #86 ) ;
#33 = MECHANICAL_CONTEXT ( 'NONE', #86, 'mechanical' ) ;
#34 = VECTOR ( 'NONE', #199, 1000.000000000000000 ) ;
#35 = EDGE_LOOP ( 'NONE', ( #162, #183 ) ) ;
#36 = DIRECTION ( 'NONE',  ( 1.000000000000000000, 0.000000000000000000, -0.000000000000000000 ) ) ;
#37 = AXIS2_PLACEMENT_3D ( 'NONE', #88, #84, #195 ) ;
#38 = CIRCLE ( 'NONE', #201, 6.000000000000000888 ) ;
#39 = COORDINATED_UNIVERSAL_TIME_OFFSET ( 1, 0, .AHEAD. ) ;
#40 = APPROVAL ( #178, 'NEURÈENÝ' ) ;
#41 = CALENDAR_DATE ( 2023, 13, 2 ) ;
#42 = CYLINDRICAL_SURFACE ( 'NONE', #108, 3.750000000000000000 ) ;
#43 = PERSON_AND_ORGANIZATION_ROLE ( 'creator' ) ;
#44 = CARTESIAN_POINT ( 'NONE',  ( -3.750000000000000000, 0.000000000000000000, 100.0000000000000000 ) ) ;
#45 = PRODUCT ( '5e83', '5e83', '', ( #33 ) ) ;
#46 = ADVANCED_FACE ( 'NONE', ( #28 ), #181, .T. ) ;
#47 = PERSON_AND_ORGANIZATION ( #96, #171 ) ;
#48 = DIRECTION ( 'NONE',  ( 1.000000000000000000, 0.000000000000000000, 0.000000000000000000 ) ) ;
#49 = LINE ( 'NONE', #200, #91 ) ;
#50 = FACE_OUTER_BOUND ( 'NONE', #254, .T. ) ;
#51 = CC_DESIGN_APPROVAL ( #113, ( #196 ) ) ;
#52 = ORIENTED_EDGE ( 'NONE', *, *, #74, .F. ) ;
#53 = LOCAL_TIME ( 15, 50, 25.00000000000000000, #39 ) ;
#54 = ADVANCED_FACE ( 'NONE', ( #7 ), #237, .F. ) ;
#55 = CARTESIAN_POINT ( 'NONE',  ( 0.000000000000000000, 0.000000000000000000, 5.000000000000000000 ) ) ;
#56 = CIRCLE ( 'NONE', #109, 6.000000000000000888 ) ;
#57 = ORIENTED_EDGE ( 'NONE', *, *, #218, .F. ) ;
#58 = EDGE_CURVE ( 'NONE', #154, #235, #134, .T. ) ;
#59 = SECURITY_CLASSIFICATION_LEVEL ( 'unclassified' ) ;
#60 = PERSON_AND_ORGANIZATION_ROLE ( 'creator' ) ;
#61 = LINE ( 'NONE', #110, #66 ) ;
#62 = COORDINATED_UNIVERSAL_TIME_OFFSET ( 1, 0, .AHEAD. ) ;
#63 = DIRECTION ( 'NONE',  ( -1.000000000000000000, 0.000000000000000000, 0.000000000000000000 ) ) ;
#64 = EDGE_CURVE ( 'NONE', #24, #227, #49, .T. ) ;
#65 = CARTESIAN_POINT ( 'NONE',  ( 6.000000000000000888, 7.347880794884120722E-16, 5.000000000000000000 ) ) ;
#66 = VECTOR ( 'NONE', #164, 1000.000000000000000 ) ;
#67 = APPROVAL_ROLE ( '' ) ;
#68 = CYLINDRICAL_SURFACE ( 'NONE', #30, 3.750000000000000000 ) ;
#69 = CALENDAR_DATE ( 2023, 13, 2 ) ;
#70 = DIRECTION ( 'NONE',  ( 1.000000000000000000, 0.000000000000000000, 0.000000000000000000 ) ) ;
#71 = DIRECTION ( 'NONE',  ( 1.000000000000000000, 0.000000000000000000, -0.000000000000000000 ) ) ;
#72 = CARTESIAN_POINT ( 'NONE',  ( 3.750000000000000000, 4.592425496802573972E-16, 100.0000000000000000 ) ) ;
#73 = CARTESIAN_POINT ( 'NONE',  ( 0.000000000000000000, 0.000000000000000000, 5.000000000000000000 ) ) ;
#74 = EDGE_CURVE ( 'NONE', #131, #235, #61, .T. ) ;
#75 = PLANE ( 'NONE',  #135 ) ;
#76 = MANIFOLD_SOLID_BREP ( 'Pøidat vysunutím3', #78 ) ;
#77 = VERTEX_POINT ( 'NONE', #246 ) ;
#78 = CLOSED_SHELL ( 'NONE', ( #223, #46, #202, #9, #54, #98, #174 ) ) ;
#79 = ORIENTED_EDGE ( 'NONE', *, *, #248, .F. ) ;
#80 = PRODUCT_RELATED_PRODUCT_CATEGORY ( 'detail', '', ( #45 ) ) ;
#81 = CALENDAR_DATE ( 2023, 13, 2 ) ;
#82 = PERSON_AND_ORGANIZATION ( #96, #171 ) ;
#83 = CC_DESIGN_SECURITY_CLASSIFICATION ( #22, ( #196 ) ) ;
#84 = DIRECTION ( 'NONE',  ( 0.000000000000000000, 0.000000000000000000, 1.000000000000000000 ) ) ;
#85 = APPROVAL_ROLE ( '' ) ;
#86 = APPLICATION_CONTEXT ( 'configuration controlled 3d designs of mechanical parts and assemblies' ) ;
#87 = DIRECTION ( 'NONE',  ( -1.000000000000000000, 0.000000000000000000, 0.000000000000000000 ) ) ;
#88 = CARTESIAN_POINT ( 'NONE',  ( 0.000000000000000000, 0.000000000000000000, 0.000000000000000000 ) ) ;
#89 = EDGE_CURVE ( 'NONE', #105, #77, #100, .T. ) ;
#90 =( LENGTH_UNIT ( ) NAMED_UNIT ( * ) SI_UNIT ( .MILLI., .METRE. ) );
#91 = VECTOR ( 'NONE', #29, 1000.000000000000000 ) ;
#92 = FACE_OUTER_BOUND ( 'NONE', #1, .T. ) ;
#93 = DIRECTION ( 'NONE',  ( 0.000000000000000000, 0.000000000000000000, 1.000000000000000000 ) ) ;
#94 = APPLICATION_CONTEXT ( 'configuration controlled 3d designs of mechanical parts and assemblies' ) ;
#95 = AXIS2_PLACEMENT_3D ( 'NONE', #127, #185, #130 ) ;
#96 = PERSON ( 'NEURÈENÝ', 'NEURÈENÝ', 'NEURÈENÝ', ('NEURÈENÝ'), ('NEURÈENÝ'), ('NEURÈENÝ') ) ;
#97 = ORIENTED_EDGE ( 'NONE', *, *, #186, .F. ) ;
#98 = ADVANCED_FACE ( 'NONE', ( #50 ), #42, .T. ) ;
#99 = ORIENTED_EDGE ( 'NONE', *, *, #64, .F. ) ;
#100 = LINE ( 'NONE', #145, #231 ) ;
#101 = AXIS2_PLACEMENT_3D ( 'NONE', #245, #107, #87 ) ;
#102 = UNCERTAINTY_MEASURE_WITH_UNIT (LENGTH_MEASURE( 1.000000000000000082E-05 ), #90, 'distance_accuracy_value', 'NONE');
#103 = PERSON_AND_ORGANIZATION_ROLE ( 'classification_officer' ) ;
#104 = DIRECTION ( 'NONE',  ( 0.000000000000000000, 0.000000000000000000, 1.000000000000000000 ) ) ;
#105 = VERTEX_POINT ( 'NONE', #72 ) ;
#106 = DIRECTION ( 'NONE',  ( 0.000000000000000000, 0.000000000000000000, 1.000000000000000000 ) ) ;
#107 = DIRECTION ( 'NONE',  ( -0.000000000000000000, -0.000000000000000000, -1.000000000000000000 ) ) ;
#108 = AXIS2_PLACEMENT_3D ( 'NONE', #126, #175, #128 ) ;
#109 = AXIS2_PLACEMENT_3D ( 'NONE', #139, #106, #8 ) ;
#110 = CARTESIAN_POINT ( 'NONE',  ( -6.000000000000000888, 0.000000000000000000, 5.000000000000000000 ) ) ;
#111 = PRODUCT_DEFINITION_SHAPE ( 'NONE', 'NONE',  #143 ) ;
#112 = PERSON_AND_ORGANIZATION_ROLE ( 'design_owner' ) ;
#113 = APPROVAL ( #2, 'NEURÈENÝ' ) ;
#114 = DIRECTION ( 'NONE',  ( 1.000000000000000000, 0.000000000000000000, 0.000000000000000000 ) ) ;
#115 = CARTESIAN_POINT ( 'NONE',  ( -6.000000000000000888, 0.000000000000000000, 5.000000000000000000 ) ) ;
#116 = AXIS2_PLACEMENT_3D ( 'NONE', #163, #217, #71 ) ;
#117 = EDGE_CURVE ( 'NONE', #77, #227, #161, .T. ) ;
#118 = COORDINATED_UNIVERSAL_TIME_OFFSET ( 1, 0, .AHEAD. ) ;
#119 = AXIS2_PLACEMENT_3D ( 'NONE', #55, #104, #177 ) ;
#120 = ORIENTED_EDGE ( 'NONE', *, *, #15, .T. ) ;
#121 = CARTESIAN_POINT ( 'NONE',  ( 0.000000000000000000, 0.000000000000000000, 5.000000000000000000 ) ) ;
#122 = PERSON_AND_ORGANIZATION_ROLE ( 'design_supplier' ) ;
#123 = APPROVAL ( #240, 'NEURÈENÝ' ) ;
#124 = SHAPE_DEFINITION_REPRESENTATION ( #111, #169 ) ;
#125 = APPROVAL_PERSON_ORGANIZATION ( #82, #40, #213 ) ;
#126 = CARTESIAN_POINT ( 'NONE',  ( 0.000000000000000000, 0.000000000000000000, 100.0000000000000000 ) ) ;
#127 = CARTESIAN_POINT ( 'NONE',  ( 0.000000000000000000, 0.000000000000000000, 0.000000000000000000 ) ) ;
#128 = DIRECTION ( 'NONE',  ( -1.000000000000000000, 0.000000000000000000, 0.000000000000000000 ) ) ;
#129 = AXIS2_PLACEMENT_3D ( 'NONE', #158, #238, #63 ) ;
#130 = DIRECTION ( 'NONE',  ( 1.000000000000000000, 0.000000000000000000, 0.000000000000000000 ) ) ;
#131 = VERTEX_POINT ( 'NONE', #115 ) ;
#132 = CARTESIAN_POINT ( 'NONE',  ( 0.000000000000000000, 0.000000000000000000, 100.0000000000000000 ) ) ;
#133 = EDGE_LOOP ( 'NONE', ( #97, #192 ) ) ;
#134 = CIRCLE ( 'NONE', #170, 6.000000000000000888 ) ;
#135 = AXIS2_PLACEMENT_3D ( 'NONE', #132, #206, #36 ) ;
#136 = CALENDAR_DATE ( 2023, 13, 2 ) ;
#137 = ORIENTED_EDGE ( 'NONE', *, *, #27, .T. ) ;
#138 = DATE_TIME_ROLE ( 'creation_date' ) ;
#139 = CARTESIAN_POINT ( 'NONE',  ( 0.000000000000000000, 0.000000000000000000, 0.000000000000000000 ) ) ;
#140 = EDGE_LOOP ( 'NONE', ( #57, #172, #209, #99 ) ) ;
#141 = COORDINATED_UNIVERSAL_TIME_OFFSET ( 1, 0, .AHEAD. ) ;
#142 = DIRECTION ( 'NONE',  ( 0.000000000000000000, 0.000000000000000000, 1.000000000000000000 ) ) ;
#143 = PRODUCT_DEFINITION ( 'NEZNÁMÝ', '', #196, #211 ) ;
#144 = DATE_TIME_ROLE ( 'classification_date' ) ;
#145 = CARTESIAN_POINT ( 'NONE',  ( 3.750000000000000000, 4.592425496802573972E-16, 100.0000000000000000 ) ) ;
#146 = ORIENTED_EDGE ( 'NONE', *, *, #208, .T. ) ;
#147 = CARTESIAN_POINT ( 'NONE',  ( -3.750000000000000000, 0.000000000000000000, 5.000000000000000000 ) ) ;
#148 = ORIENTED_EDGE ( 'NONE', *, *, #89, .F. ) ;
#149 = LOCAL_TIME ( 15, 50, 25.00000000000000000, #118 ) ;
#150 = CC_DESIGN_DATE_AND_TIME_ASSIGNMENT ( #6, #138, ( #143 ) ) ;
#151 = CC_DESIGN_PERSON_AND_ORGANIZATION_ASSIGNMENT ( #214, #60, ( #143 ) ) ;
#152 = ORIENTED_EDGE ( 'NONE', *, *, #64, .T. ) ;
#153 = EDGE_LOOP ( 'NONE', ( #137, #255 ) ) ;
#154 = VERTEX_POINT ( 'NONE', #187 ) ;
#155 = DATE_AND_TIME ( #41, #53 ) ;
#156 = CC_DESIGN_PERSON_AND_ORGANIZATION_ASSIGNMENT ( #25, #103, ( #22 ) ) ;
#157 = DIRECTION ( 'NONE',  ( 0.000000000000000000, 0.000000000000000000, 1.000000000000000000 ) ) ;
#158 = CARTESIAN_POINT ( 'NONE',  ( 0.000000000000000000, 0.000000000000000000, 5.000000000000000000 ) ) ;
#159 = PERSON_AND_ORGANIZATION ( #96, #171 ) ;
#160 = DIRECTION ( 'NONE',  ( 1.000000000000000000, 0.000000000000000000, 0.000000000000000000 ) ) ;
#161 = CIRCLE ( 'NONE', #252, 3.750000000000000000 ) ;
#162 = ORIENTED_EDGE ( 'NONE', *, *, #208, .F. ) ;
#163 = CARTESIAN_POINT ( 'NONE',  ( 0.000000000000000000, 0.000000000000000000, 5.000000000000000000 ) ) ;
#164 = DIRECTION ( 'NONE',  ( -0.000000000000000000, -0.000000000000000000, -1.000000000000000000 ) ) ;
#165 = CARTESIAN_POINT ( 'NONE',  ( 6.000000000000000888, 7.347880794884120722E-16, 5.000000000000000000 ) ) ;
#166 = ORIENTED_EDGE ( 'NONE', *, *, #218, .T. ) ;
#167 = CC_DESIGN_DATE_AND_TIME_ASSIGNMENT ( #176, #144, ( #22 ) ) ;
#168 = LOCAL_TIME ( 15, 50, 25.00000000000000000, #141 ) ;
#169 = ADVANCED_BREP_SHAPE_REPRESENTATION ( '5e83', ( #76, #95 ), #207 ) ;
#170 = AXIS2_PLACEMENT_3D ( 'NONE', #242, #142, #70 ) ;
#171 = ORGANIZATION ( 'NEURÈENÝ', 'NEURÈENÝ', '' ) ;
#172 = ORIENTED_EDGE ( 'NONE', *, *, #89, .T. ) ;
#173 = APPLICATION_PROTOCOL_DEFINITION ( 'international standard', 'config_control_design', 1994, #94 ) ;
#174 = ADVANCED_FACE ( 'NONE', ( #92 ), #75, .T. ) ;
#175 = DIRECTION ( 'NONE',  ( -0.000000000000000000, -0.000000000000000000, -1.000000000000000000 ) ) ;
#176 = DATE_AND_TIME ( #136, #149 ) ;
#177 = DIRECTION ( 'NONE',  ( 1.000000000000000000, 0.000000000000000000, 0.000000000000000000 ) ) ;
#178 = APPROVAL_STATUS ( 'not_yet_approved' ) ;
#179 = EDGE_LOOP ( 'NONE', ( #79, #120, #203, #52 ) ) ;
#180 = DIRECTION ( 'NONE',  ( 0.000000000000000000, 0.000000000000000000, 1.000000000000000000 ) ) ;
#181 = CYLINDRICAL_SURFACE ( 'NONE', #101, 6.000000000000000888 ) ;
#182 = CIRCLE ( 'NONE', #3, 6.000000000000000888 ) ;
#183 = ORIENTED_EDGE ( 'NONE', *, *, #58, .F. ) ;
#184 = EDGE_CURVE ( 'NONE', #24, #105, #18, .T. ) ;
#185 = DIRECTION ( 'NONE',  ( 0.000000000000000000, 0.000000000000000000, 1.000000000000000000 ) ) ;
#186 = EDGE_CURVE ( 'NONE', #227, #77, #26, .T. ) ;
#187 = CARTESIAN_POINT ( 'NONE',  ( 6.000000000000000888, 7.347880794884120722E-16, 0.000000000000000000 ) ) ;
#188 = DIRECTION ( 'NONE',  ( 1.000000000000000000, 0.000000000000000000, 0.000000000000000000 ) ) ;
#189 = CARTESIAN_POINT ( 'NONE',  ( 0.000000000000000000, 0.000000000000000000, 100.0000000000000000 ) ) ;
#190 = CC_DESIGN_APPROVAL ( #123, ( #22 ) ) ;
#191 = AXIS2_PLACEMENT_3D ( 'NONE', #189, #93, #230 ) ;
#192 = ORIENTED_EDGE ( 'NONE', *, *, #117, .F. ) ;
#193 = APPROVAL_DATE_TIME ( #155, #113 ) ;
#194 = PERSON_AND_ORGANIZATION ( #96, #171 ) ;
#195 = DIRECTION ( 'NONE',  ( 1.000000000000000000, 0.000000000000000000, -0.000000000000000000 ) ) ;
#196 = PRODUCT_DEFINITION_FORMATION_WITH_SPECIFIED_SOURCE ( 'LIBOVOLNÝ', '', #45, .NOT_KNOWN. ) ;
#197 = PERSON_AND_ORGANIZATION ( #96, #171 ) ;
#198 = FACE_OUTER_BOUND ( 'NONE', #153, .T. ) ;
#199 = DIRECTION ( 'NONE',  ( -0.000000000000000000, -0.000000000000000000, -1.000000000000000000 ) ) ;
#200 = CARTESIAN_POINT ( 'NONE',  ( -3.750000000000000000, 0.000000000000000000, 100.0000000000000000 ) ) ;
#201 = AXIS2_PLACEMENT_3D ( 'NONE', #205, #17, #188 ) ;
#202 = ADVANCED_FACE ( 'NONE', ( #5 ), #4, .T. ) ;
#203 = ORIENTED_EDGE ( 'NONE', *, *, #58, .T. ) ;
#204 = DIRECTION ( 'NONE',  ( 0.000000000000000000, 0.000000000000000000, 1.000000000000000000 ) ) ;
#205 = CARTESIAN_POINT ( 'NONE',  ( 0.000000000000000000, 0.000000000000000000, 5.000000000000000000 ) ) ;
#206 = DIRECTION ( 'NONE',  ( 0.000000000000000000, 0.000000000000000000, 1.000000000000000000 ) ) ;
#207 =( GEOMETRIC_REPRESENTATION_CONTEXT ( 3 ) GLOBAL_UNCERTAINTY_ASSIGNED_CONTEXT ( ( #102 ) ) GLOBAL_UNIT_ASSIGNED_CONTEXT ( ( #90, #224, #13 ) ) REPRESENTATION_CONTEXT ( 'NONE', 'WORKASPACE' ) );
#208 = EDGE_CURVE ( 'NONE', #235, #154, #56, .T. ) ;
#209 = ORIENTED_EDGE ( 'NONE', *, *, #117, .T. ) ;
#210 = ORIENTED_EDGE ( 'NONE', *, *, #74, .T. ) ;
#211 = DESIGN_CONTEXT ( 'detailed design', #94, 'design' ) ;
#212 = CC_DESIGN_PERSON_AND_ORGANIZATION_ASSIGNMENT ( #47, #43, ( #196 ) ) ;
#213 = APPROVAL_ROLE ( '' ) ;
#214 = PERSON_AND_ORGANIZATION ( #96, #171 ) ;
#215 = LINE ( 'NONE', #65, #34 ) ;
#216 = CARTESIAN_POINT ( 'NONE',  ( 0.000000000000000000, 0.000000000000000000, 100.0000000000000000 ) ) ;
#217 = DIRECTION ( 'NONE',  ( 0.000000000000000000, 0.000000000000000000, 1.000000000000000000 ) ) ;
#218 = EDGE_CURVE ( 'NONE', #105, #24, #229, .T. ) ;
#219 = CALENDAR_DATE ( 2023, 13, 2 ) ;
#220 = CARTESIAN_POINT ( 'NONE',  ( 0.000000000000000000, 0.000000000000000000, 100.0000000000000000 ) ) ;
#221 = DATE_AND_TIME ( #219, #168 ) ;
#222 = DIRECTION ( 'NONE',  ( -0.000000000000000000, -0.000000000000000000, -1.000000000000000000 ) ) ;
#223 = ADVANCED_FACE ( 'NONE', ( #241 ), #68, .T. ) ;
#224 =( NAMED_UNIT ( * ) PLANE_ANGLE_UNIT ( ) SI_UNIT ( $, .RADIAN. ) );
#225 = DIRECTION ( 'NONE',  ( -0.000000000000000000, -0.000000000000000000, -1.000000000000000000 ) ) ;
#226 = VERTEX_POINT ( 'NONE', #165 ) ;
#227 = VERTEX_POINT ( 'NONE', #147 ) ;
#228 = APPROVAL_DATE_TIME ( #221, #123 ) ;
#229 = CIRCLE ( 'NONE', #234, 3.750000000000000000 ) ;
#230 = DIRECTION ( 'NONE',  ( 1.000000000000000000, 0.000000000000000000, 0.000000000000000000 ) ) ;
#231 = VECTOR ( 'NONE', #225, 1000.000000000000000 ) ;
#232 = LOCAL_TIME ( 15, 50, 25.00000000000000000, #233 ) ;
#233 = COORDINATED_UNIVERSAL_TIME_OFFSET ( 1, 0, .AHEAD. ) ;
#234 = AXIS2_PLACEMENT_3D ( 'NONE', #216, #180, #160 ) ;
#235 = VERTEX_POINT ( 'NONE', #247 ) ;
#236 = DATE_AND_TIME ( #81, #11 ) ;
#237 = PLANE ( 'NONE',  #37 ) ;
#238 = DIRECTION ( 'NONE',  ( -0.000000000000000000, -0.000000000000000000, -1.000000000000000000 ) ) ;
#239 = FACE_BOUND ( 'NONE', #133, .T. ) ;
#240 = APPROVAL_STATUS ( 'not_yet_approved' ) ;
#241 = FACE_OUTER_BOUND ( 'NONE', #140, .T. ) ;
#242 = CARTESIAN_POINT ( 'NONE',  ( 0.000000000000000000, 0.000000000000000000, 0.000000000000000000 ) ) ;
#243 = APPROVAL_PERSON_ORGANIZATION ( #159, #113, #85 ) ;
#244 = APPROVAL_DATE_TIME ( #236, #40 ) ;
#245 = CARTESIAN_POINT ( 'NONE',  ( 0.000000000000000000, 0.000000000000000000, 5.000000000000000000 ) ) ;
#246 = CARTESIAN_POINT ( 'NONE',  ( 3.750000000000000000, 4.592425496802573972E-16, 5.000000000000000000 ) ) ;
#247 = CARTESIAN_POINT ( 'NONE',  ( -6.000000000000000888, 0.000000000000000000, 0.000000000000000000 ) ) ;
#248 = EDGE_CURVE ( 'NONE', #226, #131, #38, .T. ) ;
#249 = ORIENTED_EDGE ( 'NONE', *, *, #184, .T. ) ;
#250 = EDGE_LOOP ( 'NONE', ( #12, #21, #210, #146 ) ) ;
#251 = DIRECTION ( 'NONE',  ( -1.000000000000000000, 0.000000000000000000, 0.000000000000000000 ) ) ;
#252 = AXIS2_PLACEMENT_3D ( 'NONE', #73, #204, #114 ) ;
#253 = CC_DESIGN_PERSON_AND_ORGANIZATION_ASSIGNMENT ( #194, #122, ( #196 ) ) ;
#254 = EDGE_LOOP ( 'NONE', ( #148, #23, #152, #16 ) ) ;
#255 = ORIENTED_EDGE ( 'NONE', *, *, #248, .T. ) ;
ENDSEC;
END-ISO-10303-21;
