ISO-10303-21;
HEADER;
FILE_DESCRIPTION (( 'STEP AP203' ),
    '1' );
FILE_NAME ('a2f0.STEP',
    '2022-07-07T17:45:40',
    ( '' ),
    ( '' ),
    'SwSTEP 2.0',
    'SolidWorks 2019',
    '' );
FILE_SCHEMA (( 'CONFIG_CONTROL_DESIGN' ));
ENDSEC;

DATA;
#1 = CC_DESIGN_PERSON_AND_ORGANIZATION_ASSIGNMENT ( #55, #94, ( #18 ) ) ;
#2 = AXIS2_PLACEMENT_3D ( 'NONE', #9, #15, #72 ) ;
#3 = APPLICATION_CONTEXT ( 'configuration controlled 3d designs of mechanical parts and assemblies' ) ;
#4 = APPROVAL_STATUS ( 'not_yet_approved' ) ;
#5 = APPROVAL_STATUS ( 'not_yet_approved' ) ;
#6 = DIRECTION ( 'NONE',  ( -0.000000000000000000, -0.000000000000000000, -1.000000000000000000 ) ) ;
#7 = ORIENTED_EDGE ( 'NONE', *, *, #204, .T. ) ;
#8 = DIRECTION ( 'NONE',  ( 0.000000000000000000, 0.000000000000000000, 1.000000000000000000 ) ) ;
#9 = CARTESIAN_POINT ( 'NONE',  ( 0.000000000000000000, 0.000000000000000000, 163.0000000000000000 ) ) ;
#10 = CYLINDRICAL_SURFACE ( 'NONE', #116, 2.600000000000000089 ) ;
#11 = LINE ( 'NONE', #134, #52 ) ;
#12 = CARTESIAN_POINT ( 'NONE',  ( -2.600000000000000089, 0.000000000000000000, 163.0000000000000000 ) ) ;
#13 = EDGE_LOOP ( 'NONE', ( #252, #59 ) ) ;
#14 = COORDINATED_UNIVERSAL_TIME_OFFSET ( 1, 0, .AHEAD. ) ;
#15 = DIRECTION ( 'NONE',  ( 0.000000000000000000, 0.000000000000000000, 1.000000000000000000 ) ) ;
#16 = VERTEX_POINT ( 'NONE', #152 ) ;
#17 = CARTESIAN_POINT ( 'NONE',  ( 0.000000000000000000, 0.000000000000000000, 0.000000000000000000 ) ) ;
#18 = PRODUCT ( 'a2f0', 'a2f0', '', ( #60 ) ) ;
#19 = CARTESIAN_POINT ( 'NONE',  ( 0.000000000000000000, 0.000000000000000000, 3.000000000000000000 ) ) ;
#20 =( NAMED_UNIT ( * ) SI_UNIT ( $, .STERADIAN. ) SOLID_ANGLE_UNIT ( ) );
#21 = ADVANCED_BREP_SHAPE_REPRESENTATION ( 'a2f0', ( #63, #178 ), #149 ) ;
#22 = AXIS2_PLACEMENT_3D ( 'NONE', #112, #121, #102 ) ;
#23 = CC_DESIGN_PERSON_AND_ORGANIZATION_ASSIGNMENT ( #100, #98, ( #221 ) ) ;
#24 = EDGE_CURVE ( 'NONE', #65, #16, #131, .T. ) ;
#25 = VECTOR ( 'NONE', #124, 1000.000000000000000 ) ;
#26 = APPROVAL_DATE_TIME ( #184, #119 ) ;
#27 = LOCAL_TIME ( 19, 45, 40.00000000000000000, #180 ) ;
#28 = PERSON_AND_ORGANIZATION ( #61, #222 ) ;
#29 = PERSON_AND_ORGANIZATION ( #61, #222 ) ;
#30 = PRODUCT_DEFINITION_SHAPE ( 'NONE', 'NONE',  #155 ) ;
#31 = CLOSED_SHELL ( 'NONE', ( #45, #201, #79, #202, #95, #125, #78 ) ) ;
#32 = CARTESIAN_POINT ( 'NONE',  ( 0.000000000000000000, 0.000000000000000000, 163.0000000000000000 ) ) ;
#33 = ORIENTED_EDGE ( 'NONE', *, *, #145, .T. ) ;
#34 = APPROVAL ( #4, 'NEURÈENÝ' ) ;
#35 = PLANE ( 'NONE',  #76 ) ;
#36 = CARTESIAN_POINT ( 'NONE',  ( 0.000000000000000000, 0.000000000000000000, 163.0000000000000000 ) ) ;
#37 = CARTESIAN_POINT ( 'NONE',  ( 0.000000000000000000, 0.000000000000000000, 0.000000000000000000 ) ) ;
#38 = ORIENTED_EDGE ( 'NONE', *, *, #24, .F. ) ;
#39 = DIRECTION ( 'NONE',  ( 0.000000000000000000, 0.000000000000000000, 1.000000000000000000 ) ) ;
#40 = CARTESIAN_POINT ( 'NONE',  ( 0.000000000000000000, 0.000000000000000000, 3.000000000000000000 ) ) ;
#41 = EDGE_LOOP ( 'NONE', ( #86, #126 ) ) ;
#42 = DIRECTION ( 'NONE',  ( 0.000000000000000000, 0.000000000000000000, 1.000000000000000000 ) ) ;
#43 = VERTEX_POINT ( 'NONE', #90 ) ;
#44 =( LENGTH_UNIT ( ) NAMED_UNIT ( * ) SI_UNIT ( .MILLI., .METRE. ) );
#45 = ADVANCED_FACE ( 'NONE', ( #93 ), #10, .T. ) ;
#46 = APPROVAL_PERSON_ORGANIZATION ( #28, #34, #81 ) ;
#47 = DATE_AND_TIME ( #188, #138 ) ;
#48 = DIRECTION ( 'NONE',  ( -1.000000000000000000, 0.000000000000000000, 0.000000000000000000 ) ) ;
#49 = PERSON_AND_ORGANIZATION ( #61, #222 ) ;
#50 = ORIENTED_EDGE ( 'NONE', *, *, #117, .F. ) ;
#51 = APPROVAL_DATE_TIME ( #227, #253 ) ;
#52 = VECTOR ( 'NONE', #111, 1000.000000000000000 ) ;
#53 = CARTESIAN_POINT ( 'NONE',  ( -5.000000000000000000, 0.000000000000000000, 3.000000000000000000 ) ) ;
#54 = ORIENTED_EDGE ( 'NONE', *, *, #204, .F. ) ;
#55 = PERSON_AND_ORGANIZATION ( #61, #222 ) ;
#56 = PLANE ( 'NONE',  #2 ) ;
#57 = VERTEX_POINT ( 'NONE', #232 ) ;
#58 = DIRECTION ( 'NONE',  ( -0.000000000000000000, -0.000000000000000000, -1.000000000000000000 ) ) ;
#59 = ORIENTED_EDGE ( 'NONE', *, *, #145, .F. ) ;
#60 = MECHANICAL_CONTEXT ( 'NONE', #182, 'mechanical' ) ;
#61 = PERSON ( 'NEURÈENÝ', 'NEURÈENÝ', 'NEURÈENÝ', ('NEURÈENÝ'), ('NEURÈENÝ'), ('NEURÈENÝ') ) ;
#62 = AXIS2_PLACEMENT_3D ( 'NONE', #109, #42, #247 ) ;
#63 = MANIFOLD_SOLID_BREP ( 'Pøidat vysunutím3', #31 ) ;
#64 = PLANE ( 'NONE',  #75 ) ;
#65 = VERTEX_POINT ( 'NONE', #105 ) ;
#66 = APPROVAL_ROLE ( '' ) ;
#67 = DIRECTION ( 'NONE',  ( -0.000000000000000000, -0.000000000000000000, -1.000000000000000000 ) ) ;
#68 = ORIENTED_EDGE ( 'NONE', *, *, #165, .F. ) ;
#69 = DIRECTION ( 'NONE',  ( 0.000000000000000000, 0.000000000000000000, 1.000000000000000000 ) ) ;
#70 = LINE ( 'NONE', #132, #244 ) ;
#71 = EDGE_LOOP ( 'NONE', ( #50, #38, #219, #104 ) ) ;
#72 = DIRECTION ( 'NONE',  ( 1.000000000000000000, 0.000000000000000000, -0.000000000000000000 ) ) ;
#73 = ORIENTED_EDGE ( 'NONE', *, *, #239, .T. ) ;
#74 = PRODUCT_RELATED_PRODUCT_CATEGORY ( 'detail', '', ( #18 ) ) ;
#75 = AXIS2_PLACEMENT_3D ( 'NONE', #37, #85, #169 ) ;
#76 = AXIS2_PLACEMENT_3D ( 'NONE', #224, #8, #84 ) ;
#77 = CIRCLE ( 'NONE', #229, 2.600000000000000089 ) ;
#78 = ADVANCED_FACE ( 'NONE', ( #92 ), #56, .T. ) ;
#79 = ADVANCED_FACE ( 'NONE', ( #228 ), #217, .T. ) ;
#80 = DATE_TIME_ROLE ( 'classification_date' ) ;
#81 = APPROVAL_ROLE ( '' ) ;
#82 = CARTESIAN_POINT ( 'NONE',  ( 0.000000000000000000, 0.000000000000000000, 3.000000000000000000 ) ) ;
#83 = EDGE_CURVE ( 'NONE', #245, #196, #144, .T. ) ;
#84 = DIRECTION ( 'NONE',  ( 1.000000000000000000, 0.000000000000000000, -0.000000000000000000 ) ) ;
#85 = DIRECTION ( 'NONE',  ( 0.000000000000000000, 0.000000000000000000, 1.000000000000000000 ) ) ;
#86 = ORIENTED_EDGE ( 'NONE', *, *, #238, .T. ) ;
#87 = DIRECTION ( 'NONE',  ( 1.000000000000000000, 0.000000000000000000, 0.000000000000000000 ) ) ;
#88 = CIRCLE ( 'NONE', #215, 2.600000000000000089 ) ;
#89 = DIRECTION ( 'NONE',  ( -1.000000000000000000, 0.000000000000000000, 0.000000000000000000 ) ) ;
#90 = CARTESIAN_POINT ( 'NONE',  ( -2.600000000000000089, 0.000000000000000000, 3.000000000000000000 ) ) ;
#91 =( NAMED_UNIT ( * ) PLANE_ANGLE_UNIT ( ) SI_UNIT ( $, .RADIAN. ) );
#92 = FACE_OUTER_BOUND ( 'NONE', #41, .T. ) ;
#93 = FACE_OUTER_BOUND ( 'NONE', #233, .T. ) ;
#94 = PERSON_AND_ORGANIZATION_ROLE ( 'design_owner' ) ;
#95 = ADVANCED_FACE ( 'NONE', ( #243 ), #64, .F. ) ;
#96 = EDGE_CURVE ( 'NONE', #43, #57, #192, .T. ) ;
#97 = CC_DESIGN_APPROVAL ( #119, ( #221 ) ) ;
#98 = PERSON_AND_ORGANIZATION_ROLE ( 'classification_officer' ) ;
#99 = AXIS2_PLACEMENT_3D ( 'NONE', #157, #39, #153 ) ;
#100 = PERSON_AND_ORGANIZATION ( #61, #222 ) ;
#101 = PERSON_AND_ORGANIZATION_ROLE ( 'design_supplier' ) ;
#102 = DIRECTION ( 'NONE',  ( 1.000000000000000000, 0.000000000000000000, 0.000000000000000000 ) ) ;
#103 = COORDINATED_UNIVERSAL_TIME_OFFSET ( 1, 0, .AHEAD. ) ;
#104 = ORIENTED_EDGE ( 'NONE', *, *, #165, .T. ) ;
#105 = CARTESIAN_POINT ( 'NONE',  ( -5.000000000000000000, 0.000000000000000000, 3.000000000000000000 ) ) ;
#106 = APPROVAL_ROLE ( '' ) ;
#107 = DIRECTION ( 'NONE',  ( 0.000000000000000000, 0.000000000000000000, 1.000000000000000000 ) ) ;
#108 = DIRECTION ( 'NONE',  ( 0.000000000000000000, 0.000000000000000000, 1.000000000000000000 ) ) ;
#109 = CARTESIAN_POINT ( 'NONE',  ( 0.000000000000000000, 0.000000000000000000, 3.000000000000000000 ) ) ;
#110 = ORIENTED_EDGE ( 'NONE', *, *, #83, .T. ) ;
#111 = DIRECTION ( 'NONE',  ( -0.000000000000000000, -0.000000000000000000, -1.000000000000000000 ) ) ;
#112 = CARTESIAN_POINT ( 'NONE',  ( 0.000000000000000000, 0.000000000000000000, 0.000000000000000000 ) ) ;
#113 = ORIENTED_EDGE ( 'NONE', *, *, #193, .T. ) ;
#114 = VECTOR ( 'NONE', #198, 1000.000000000000000 ) ;
#115 = DIRECTION ( 'NONE',  ( -1.000000000000000000, 0.000000000000000000, 0.000000000000000000 ) ) ;
#116 = AXIS2_PLACEMENT_3D ( 'NONE', #170, #6, #89 ) ;
#117 = EDGE_CURVE ( 'NONE', #16, #245, #70, .T. ) ;
#118 = CIRCLE ( 'NONE', #140, 2.600000000000000089 ) ;
#119 = APPROVAL ( #5, 'NEURÈENÝ' ) ;
#120 = PERSON_AND_ORGANIZATION_ROLE ( 'creator' ) ;
#121 = DIRECTION ( 'NONE',  ( 0.000000000000000000, 0.000000000000000000, 1.000000000000000000 ) ) ;
#122 = ORIENTED_EDGE ( 'NONE', *, *, #96, .T. ) ;
#123 = PERSON_AND_ORGANIZATION ( #61, #222 ) ;
#124 = DIRECTION ( 'NONE',  ( -0.000000000000000000, -0.000000000000000000, -1.000000000000000000 ) ) ;
#125 = ADVANCED_FACE ( 'NONE', ( #147 ), #191, .T. ) ;
#126 = ORIENTED_EDGE ( 'NONE', *, *, #240, .T. ) ;
#127 = CARTESIAN_POINT ( 'NONE',  ( 0.000000000000000000, 0.000000000000000000, 163.0000000000000000 ) ) ;
#128 = DIRECTION ( 'NONE',  ( 1.000000000000000000, 0.000000000000000000, 0.000000000000000000 ) ) ;
#129 = UNCERTAINTY_MEASURE_WITH_UNIT (LENGTH_MEASURE( 1.000000000000000082E-05 ), #44, 'distance_accuracy_value', 'NONE');
#130 = EDGE_LOOP ( 'NONE', ( #211, #7 ) ) ;
#131 = CIRCLE ( 'NONE', #176, 5.000000000000000000 ) ;
#132 = CARTESIAN_POINT ( 'NONE',  ( 5.000000000000000000, 6.123233995736766282E-16, 3.000000000000000000 ) ) ;
#133 = EDGE_LOOP ( 'NONE', ( #68, #186 ) ) ;
#134 = CARTESIAN_POINT ( 'NONE',  ( -2.600000000000000089, 0.000000000000000000, 163.0000000000000000 ) ) ;
#135 = AXIS2_PLACEMENT_3D ( 'NONE', #19, #58, #48 ) ;
#136 = CC_DESIGN_PERSON_AND_ORGANIZATION_ASSIGNMENT ( #49, #101, ( #158 ) ) ;
#137 = DESIGN_CONTEXT ( 'detailed design', #3, 'design' ) ;
#138 = LOCAL_TIME ( 19, 45, 40.00000000000000000, #206 ) ;
#139 = EDGE_CURVE ( 'NONE', #65, #196, #214, .T. ) ;
#140 = AXIS2_PLACEMENT_3D ( 'NONE', #36, #246, #172 ) ;
#141 = SECURITY_CLASSIFICATION_LEVEL ( 'unclassified' ) ;
#142 = FACE_OUTER_BOUND ( 'NONE', #130, .T. ) ;
#143 = ORIENTED_EDGE ( 'NONE', *, *, #240, .F. ) ;
#144 = CIRCLE ( 'NONE', #255, 5.000000000000000000 ) ;
#145 = EDGE_CURVE ( 'NONE', #57, #43, #88, .T. ) ;
#146 = CALENDAR_DATE ( 2022, 7, 7 ) ;
#147 = FACE_OUTER_BOUND ( 'NONE', #216, .T. ) ;
#148 = EDGE_LOOP ( 'NONE', ( #54, #226, #110, #235 ) ) ;
#149 =( GEOMETRIC_REPRESENTATION_CONTEXT ( 3 ) GLOBAL_UNCERTAINTY_ASSIGNED_CONTEXT ( ( #129 ) ) GLOBAL_UNIT_ASSIGNED_CONTEXT ( ( #44, #91, #20 ) ) REPRESENTATION_CONTEXT ( 'NONE', 'WORKASPACE' ) );
#150 = DATE_AND_TIME ( #168, #248 ) ;
#151 = CARTESIAN_POINT ( 'NONE',  ( 2.600000000000000089, 3.184081677783118191E-16, 163.0000000000000000 ) ) ;
#152 = CARTESIAN_POINT ( 'NONE',  ( 5.000000000000000000, 6.123233995736766282E-16, 3.000000000000000000 ) ) ;
#153 = DIRECTION ( 'NONE',  ( 1.000000000000000000, 0.000000000000000000, 0.000000000000000000 ) ) ;
#154 = FACE_OUTER_BOUND ( 'NONE', #148, .T. ) ;
#155 = PRODUCT_DEFINITION ( 'NEZNÁMÝ', '', #158, #137 ) ;
#156 = ORIENTED_EDGE ( 'NONE', *, *, #238, .F. ) ;
#157 = CARTESIAN_POINT ( 'NONE',  ( 0.000000000000000000, 0.000000000000000000, 3.000000000000000000 ) ) ;
#158 = PRODUCT_DEFINITION_FORMATION_WITH_SPECIFIED_SOURCE ( 'LIBOVOLNÝ', '', #18, .NOT_KNOWN. ) ;
#159 = CC_DESIGN_DATE_AND_TIME_ASSIGNMENT ( #150, #231, ( #155 ) ) ;
#160 = CIRCLE ( 'NONE', #99, 5.000000000000000000 ) ;
#161 = CALENDAR_DATE ( 2022, 7, 7 ) ;
#162 = DIRECTION ( 'NONE',  ( -0.000000000000000000, -0.000000000000000000, -1.000000000000000000 ) ) ;
#163 = CC_DESIGN_PERSON_AND_ORGANIZATION_ASSIGNMENT ( #29, #120, ( #158 ) ) ;
#164 = VERTEX_POINT ( 'NONE', #12 ) ;
#165 = EDGE_CURVE ( 'NONE', #196, #245, #209, .T. ) ;
#166 = CARTESIAN_POINT ( 'NONE',  ( 0.000000000000000000, 0.000000000000000000, 0.000000000000000000 ) ) ;
#167 = CARTESIAN_POINT ( 'NONE',  ( 0.000000000000000000, 0.000000000000000000, 3.000000000000000000 ) ) ;
#168 = CALENDAR_DATE ( 2022, 7, 7 ) ;
#169 = DIRECTION ( 'NONE',  ( 1.000000000000000000, 0.000000000000000000, -0.000000000000000000 ) ) ;
#170 = CARTESIAN_POINT ( 'NONE',  ( 0.000000000000000000, 0.000000000000000000, 163.0000000000000000 ) ) ;
#171 = APPROVAL_PERSON_ORGANIZATION ( #203, #119, #106 ) ;
#172 = DIRECTION ( 'NONE',  ( 1.000000000000000000, 0.000000000000000000, 0.000000000000000000 ) ) ;
#173 = DIRECTION ( 'NONE',  ( 0.000000000000000000, 0.000000000000000000, 1.000000000000000000 ) ) ;
#174 = DIRECTION ( 'NONE',  ( 1.000000000000000000, 0.000000000000000000, 0.000000000000000000 ) ) ;
#175 = PERSON_AND_ORGANIZATION ( #61, #222 ) ;
#176 = AXIS2_PLACEMENT_3D ( 'NONE', #167, #107, #189 ) ;
#177 = CC_DESIGN_APPROVAL ( #34, ( #158 ) ) ;
#178 = AXIS2_PLACEMENT_3D ( 'NONE', #17, #69, #174 ) ;
#179 = DATE_AND_TIME ( #223, #27 ) ;
#180 = COORDINATED_UNIVERSAL_TIME_OFFSET ( 1, 0, .AHEAD. ) ;
#181 = AXIS2_PLACEMENT_3D ( 'NONE', #32, #183, #115 ) ;
#182 = APPLICATION_CONTEXT ( 'configuration controlled 3d designs of mechanical parts and assemblies' ) ;
#183 = DIRECTION ( 'NONE',  ( -0.000000000000000000, -0.000000000000000000, -1.000000000000000000 ) ) ;
#184 = DATE_AND_TIME ( #161, #218 ) ;
#185 = LOCAL_TIME ( 19, 45, 40.00000000000000000, #14 ) ;
#186 = ORIENTED_EDGE ( 'NONE', *, *, #83, .F. ) ;
#187 = DIRECTION ( 'NONE',  ( 0.000000000000000000, 0.000000000000000000, 1.000000000000000000 ) ) ;
#188 = CALENDAR_DATE ( 2022, 7, 7 ) ;
#189 = DIRECTION ( 'NONE',  ( 1.000000000000000000, 0.000000000000000000, 0.000000000000000000 ) ) ;
#190 = COORDINATED_UNIVERSAL_TIME_OFFSET ( 1, 0, .AHEAD. ) ;
#191 = CYLINDRICAL_SURFACE ( 'NONE', #181, 2.600000000000000089 ) ;
#192 = CIRCLE ( 'NONE', #62, 2.600000000000000089 ) ;
#193 = EDGE_CURVE ( 'NONE', #249, #57, #210, .T. ) ;
#194 = APPLICATION_PROTOCOL_DEFINITION ( 'international standard', 'config_control_design', 1994, #182 ) ;
#195 = CARTESIAN_POINT ( 'NONE',  ( -5.000000000000000000, 0.000000000000000000, 0.000000000000000000 ) ) ;
#196 = VERTEX_POINT ( 'NONE', #195 ) ;
#197 = CC_DESIGN_SECURITY_CLASSIFICATION ( #221, ( #158 ) ) ;
#198 = DIRECTION ( 'NONE',  ( -0.000000000000000000, -0.000000000000000000, -1.000000000000000000 ) ) ;
#199 = APPLICATION_PROTOCOL_DEFINITION ( 'international standard', 'config_control_design', 1994, #3 ) ;
#200 = AXIS2_PLACEMENT_3D ( 'NONE', #82, #162, #242 ) ;
#201 = ADVANCED_FACE ( 'NONE', ( #154 ), #251, .T. ) ;
#202 = ADVANCED_FACE ( 'NONE', ( #234, #142 ), #35, .T. ) ;
#203 = PERSON_AND_ORGANIZATION ( #61, #222 ) ;
#204 = EDGE_CURVE ( 'NONE', #16, #65, #160, .T. ) ;
#205 = APPROVAL_PERSON_ORGANIZATION ( #175, #253, #66 ) ;
#206 = COORDINATED_UNIVERSAL_TIME_OFFSET ( 1, 0, .AHEAD. ) ;
#207 = CC_DESIGN_PERSON_AND_ORGANIZATION_ASSIGNMENT ( #123, #212, ( #155 ) ) ;
#208 = ORIENTED_EDGE ( 'NONE', *, *, #239, .F. ) ;
#209 = CIRCLE ( 'NONE', #22, 5.000000000000000000 ) ;
#210 = LINE ( 'NONE', #151, #114 ) ;
#211 = ORIENTED_EDGE ( 'NONE', *, *, #24, .T. ) ;
#212 = PERSON_AND_ORGANIZATION_ROLE ( 'creator' ) ;
#213 = DIRECTION ( 'NONE',  ( 1.000000000000000000, 0.000000000000000000, 0.000000000000000000 ) ) ;
#214 = LINE ( 'NONE', #53, #25 ) ;
#215 = AXIS2_PLACEMENT_3D ( 'NONE', #40, #173, #213 ) ;
#216 = EDGE_LOOP ( 'NONE', ( #230, #156, #73, #122 ) ) ;
#217 = CYLINDRICAL_SURFACE ( 'NONE', #135, 5.000000000000000000 ) ;
#218 = LOCAL_TIME ( 19, 45, 40.00000000000000000, #103 ) ;
#219 = ORIENTED_EDGE ( 'NONE', *, *, #139, .T. ) ;
#220 = CC_DESIGN_APPROVAL ( #253, ( #155 ) ) ;
#221 = SECURITY_CLASSIFICATION ( '', '', #141 ) ;
#222 = ORGANIZATION ( 'NEURÈENÝ', 'NEURÈENÝ', '' ) ;
#223 = CALENDAR_DATE ( 2022, 7, 7 ) ;
#224 = CARTESIAN_POINT ( 'NONE',  ( 0.000000000000000000, 0.000000000000000000, 3.000000000000000000 ) ) ;
#225 = APPROVAL_DATE_TIME ( #47, #34 ) ;
#226 = ORIENTED_EDGE ( 'NONE', *, *, #117, .T. ) ;
#227 = DATE_AND_TIME ( #146, #185 ) ;
#228 = FACE_OUTER_BOUND ( 'NONE', #71, .T. ) ;
#229 = AXIS2_PLACEMENT_3D ( 'NONE', #127, #108, #87 ) ;
#230 = ORIENTED_EDGE ( 'NONE', *, *, #193, .F. ) ;
#231 = DATE_TIME_ROLE ( 'creation_date' ) ;
#232 = CARTESIAN_POINT ( 'NONE',  ( 2.600000000000000089, 3.184081677783118191E-16, 3.000000000000000000 ) ) ;
#233 = EDGE_LOOP ( 'NONE', ( #143, #113, #33, #208 ) ) ;
#234 = FACE_BOUND ( 'NONE', #13, .T. ) ;
#235 = ORIENTED_EDGE ( 'NONE', *, *, #139, .F. ) ;
#236 = CARTESIAN_POINT ( 'NONE',  ( 2.600000000000000089, 3.184081677783118191E-16, 163.0000000000000000 ) ) ;
#237 = CC_DESIGN_DATE_AND_TIME_ASSIGNMENT ( #179, #80, ( #221 ) ) ;
#238 = EDGE_CURVE ( 'NONE', #164, #249, #118, .T. ) ;
#239 = EDGE_CURVE ( 'NONE', #164, #43, #11, .T. ) ;
#240 = EDGE_CURVE ( 'NONE', #249, #164, #77, .T. ) ;
#241 = SHAPE_DEFINITION_REPRESENTATION ( #30, #21 ) ;
#242 = DIRECTION ( 'NONE',  ( -1.000000000000000000, 0.000000000000000000, 0.000000000000000000 ) ) ;
#243 = FACE_OUTER_BOUND ( 'NONE', #133, .T. ) ;
#244 = VECTOR ( 'NONE', #67, 1000.000000000000000 ) ;
#245 = VERTEX_POINT ( 'NONE', #250 ) ;
#246 = DIRECTION ( 'NONE',  ( 0.000000000000000000, 0.000000000000000000, 1.000000000000000000 ) ) ;
#247 = DIRECTION ( 'NONE',  ( 1.000000000000000000, 0.000000000000000000, 0.000000000000000000 ) ) ;
#248 = LOCAL_TIME ( 19, 45, 40.00000000000000000, #190 ) ;
#249 = VERTEX_POINT ( 'NONE', #236 ) ;
#250 = CARTESIAN_POINT ( 'NONE',  ( 5.000000000000000000, 6.123233995736766282E-16, 0.000000000000000000 ) ) ;
#251 = CYLINDRICAL_SURFACE ( 'NONE', #200, 5.000000000000000000 ) ;
#252 = ORIENTED_EDGE ( 'NONE', *, *, #96, .F. ) ;
#253 = APPROVAL ( #254, 'NEURÈENÝ' ) ;
#254 = APPROVAL_STATUS ( 'not_yet_approved' ) ;
#255 = AXIS2_PLACEMENT_3D ( 'NONE', #166, #187, #128 ) ;
ENDSEC;
END-ISO-10303-21;
