ISO-10303-21;
HEADER;
FILE_DESCRIPTION (( 'STEP AP203' ),
    '1' );
FILE_NAME ('31c8.STEP',
    '2022-07-07T17:06:14',
    ( '' ),
    ( '' ),
    'SwSTEP 2.0',
    'SolidWorks 2019',
    '' );
FILE_SCHEMA (( 'CONFIG_CONTROL_DESIGN' ));
ENDSEC;

DATA;
#1 = AXIS2_PLACEMENT_3D ( 'NONE', #224, #48, #31 ) ;
#2 = VERTEX_POINT ( 'NONE', #32 ) ;
#3 = DATE_AND_TIME ( #79, #69 ) ;
#4 = VERTEX_POINT ( 'NONE', #109 ) ;
#5 = PERSON_AND_ORGANIZATION ( #89, #51 ) ;
#6 = PRODUCT_RELATED_PRODUCT_CATEGORY ( 'detail', '', ( #62 ) ) ;
#7 = ADVANCED_FACE ( 'NONE', ( #108 ), #168, .T. ) ;
#8 = CIRCLE ( 'NONE', #119, 11.00000000000000000 ) ;
#9 = ORIENTED_EDGE ( 'NONE', *, *, #170, .F. ) ;
#10 = EDGE_LOOP ( 'NONE', ( #222, #82 ) ) ;
#11 = DIRECTION ( 'NONE',  ( 1.000000000000000000, 0.000000000000000000, -0.000000000000000000 ) ) ;
#12 = CARTESIAN_POINT ( 'NONE',  ( 0.000000000000000000, 0.000000000000000000, 7.000000000000000000 ) ) ;
#13 = DIRECTION ( 'NONE',  ( 0.000000000000000000, 0.000000000000000000, 1.000000000000000000 ) ) ;
#14 = PLANE ( 'NONE',  #214 ) ;
#15 = LINE ( 'NONE', #231, #85 ) ;
#16 = AXIS2_PLACEMENT_3D ( 'NONE', #12, #49, #50 ) ;
#17 = ADVANCED_FACE ( 'NONE', ( #223, #120 ), #14, .T. ) ;
#18 = CARTESIAN_POINT ( 'NONE',  ( 11.00000000000000000, 1.347111479062088405E-15, 7.000000000000000000 ) ) ;
#19 = CYLINDRICAL_SURFACE ( 'NONE', #46, 11.00000000000000000 ) ;
#20 = PERSON_AND_ORGANIZATION ( #89, #51 ) ;
#21 = CARTESIAN_POINT ( 'NONE',  ( 0.000000000000000000, 0.000000000000000000, 7.000000000000000000 ) ) ;
#22 = VECTOR ( 'NONE', #133, 1000.000000000000000 ) ;
#23 = PERSON_AND_ORGANIZATION_ROLE ( 'classification_officer' ) ;
#24 = APPROVAL ( #114, 'NEURÈENÝ' ) ;
#25 = APPROVAL_ROLE ( '' ) ;
#26 = ORIENTED_EDGE ( 'NONE', *, *, #27, .F. ) ;
#27 = EDGE_CURVE ( 'NONE', #2, #115, #86, .T. ) ;
#28 = CIRCLE ( 'NONE', #76, 8.500000000000000000 ) ;
#29 = CC_DESIGN_SECURITY_CLASSIFICATION ( #254, ( #129 ) ) ;
#30 = CARTESIAN_POINT ( 'NONE',  ( 0.000000000000000000, 0.000000000000000000, 0.000000000000000000 ) ) ;
#31 = DIRECTION ( 'NONE',  ( 1.000000000000000000, 0.000000000000000000, 0.000000000000000000 ) ) ;
#32 = CARTESIAN_POINT ( 'NONE',  ( 8.500000000000000000, 1.040949779275250140E-15, 167.0000000000000000 ) ) ;
#33 = AXIS2_PLACEMENT_3D ( 'NONE', #130, #157, #190 ) ;
#34 = DIRECTION ( 'NONE',  ( 0.000000000000000000, 0.000000000000000000, 1.000000000000000000 ) ) ;
#35 = AXIS2_PLACEMENT_3D ( 'NONE', #203, #13, #67 ) ;
#36 = CARTESIAN_POINT ( 'NONE',  ( 11.00000000000000000, 1.347111479062088405E-15, 0.000000000000000000 ) ) ;
#37 = CARTESIAN_POINT ( 'NONE',  ( -11.00000000000000000, 0.000000000000000000, 7.000000000000000000 ) ) ;
#38 = DIRECTION ( 'NONE',  ( -1.000000000000000000, 0.000000000000000000, 0.000000000000000000 ) ) ;
#39 = DIRECTION ( 'NONE',  ( 1.000000000000000000, 0.000000000000000000, 0.000000000000000000 ) ) ;
#40 = AXIS2_PLACEMENT_3D ( 'NONE', #54, #215, #39 ) ;
#41 = ORIENTED_EDGE ( 'NONE', *, *, #139, .F. ) ;
#42 = PERSON_AND_ORGANIZATION ( #89, #51 ) ;
#43 = ORIENTED_EDGE ( 'NONE', *, *, #243, .F. ) ;
#44 = APPROVAL_DATE_TIME ( #3, #24 ) ;
#45 = ORIENTED_EDGE ( 'NONE', *, *, #206, .T. ) ;
#46 = AXIS2_PLACEMENT_3D ( 'NONE', #175, #127, #38 ) ;
#47 = FACE_OUTER_BOUND ( 'NONE', #165, .T. ) ;
#48 = DIRECTION ( 'NONE',  ( 0.000000000000000000, 0.000000000000000000, 1.000000000000000000 ) ) ;
#49 = DIRECTION ( 'NONE',  ( -0.000000000000000000, -0.000000000000000000, -1.000000000000000000 ) ) ;
#50 = DIRECTION ( 'NONE',  ( -1.000000000000000000, 0.000000000000000000, 0.000000000000000000 ) ) ;
#51 = ORGANIZATION ( 'NEURÈENÝ', 'NEURÈENÝ', '' ) ;
#52 = CARTESIAN_POINT ( 'NONE',  ( -11.00000000000000000, 0.000000000000000000, 7.000000000000000000 ) ) ;
#53 = CIRCLE ( 'NONE', #1, 8.500000000000000000 ) ;
#54 = CARTESIAN_POINT ( 'NONE',  ( 0.000000000000000000, 0.000000000000000000, 0.000000000000000000 ) ) ;
#55 = ADVANCED_BREP_SHAPE_REPRESENTATION ( '31c8', ( #249, #40 ), #211 ) ;
#56 = DIRECTION ( 'NONE',  ( 1.000000000000000000, 0.000000000000000000, 0.000000000000000000 ) ) ;
#57 = PERSON_AND_ORGANIZATION ( #89, #51 ) ;
#58 = DIRECTION ( 'NONE',  ( 0.000000000000000000, 0.000000000000000000, 1.000000000000000000 ) ) ;
#59 = EDGE_CURVE ( 'NONE', #4, #218, #102, .T. ) ;
#60 = CC_DESIGN_APPROVAL ( #94, ( #254 ) ) ;
#61 = VERTEX_POINT ( 'NONE', #167 ) ;
#62 = PRODUCT ( '31c8', '31c8', '', ( #131 ) ) ;
#63 = DIRECTION ( 'NONE',  ( -0.000000000000000000, -0.000000000000000000, -1.000000000000000000 ) ) ;
#64 = CIRCLE ( 'NONE', #209, 8.500000000000000000 ) ;
#65 = AXIS2_PLACEMENT_3D ( 'NONE', #21, #172, #255 ) ;
#66 = DIRECTION ( 'NONE',  ( 0.000000000000000000, 0.000000000000000000, 1.000000000000000000 ) ) ;
#67 = DIRECTION ( 'NONE',  ( 1.000000000000000000, 0.000000000000000000, 0.000000000000000000 ) ) ;
#68 = UNCERTAINTY_MEASURE_WITH_UNIT (LENGTH_MEASURE( 1.000000000000000082E-05 ), #252, 'distance_accuracy_value', 'NONE');
#69 = LOCAL_TIME ( 19, 6, 14.00000000000000000, #77 ) ;
#70 = COORDINATED_UNIVERSAL_TIME_OFFSET ( 1, 0, .AHEAD. ) ;
#71 = ADVANCED_FACE ( 'NONE', ( #47 ), #153, .T. ) ;
#72 = DIRECTION ( 'NONE',  ( -0.000000000000000000, -0.000000000000000000, -1.000000000000000000 ) ) ;
#73 = CARTESIAN_POINT ( 'NONE',  ( 0.000000000000000000, 0.000000000000000000, 7.000000000000000000 ) ) ;
#74 = APPROVAL_STATUS ( 'not_yet_approved' ) ;
#75 = ADVANCED_FACE ( 'NONE', ( #225 ), #247, .F. ) ;
#76 = AXIS2_PLACEMENT_3D ( 'NONE', #84, #245, #204 ) ;
#77 = COORDINATED_UNIVERSAL_TIME_OFFSET ( 1, 0, .AHEAD. ) ;
#78 = ORIENTED_EDGE ( 'NONE', *, *, #166, .T. ) ;
#79 = CALENDAR_DATE ( 2022, 7, 7 ) ;
#80 = ORIENTED_EDGE ( 'NONE', *, *, #174, .T. ) ;
#81 = ADVANCED_FACE ( 'NONE', ( #105 ), #123, .T. ) ;
#82 = ORIENTED_EDGE ( 'NONE', *, *, #107, .T. ) ;
#83 = ORIENTED_EDGE ( 'NONE', *, *, #27, .T. ) ;
#84 = CARTESIAN_POINT ( 'NONE',  ( 0.000000000000000000, 0.000000000000000000, 167.0000000000000000 ) ) ;
#85 = VECTOR ( 'NONE', #72, 1000.000000000000000 ) ;
#86 = LINE ( 'NONE', #187, #189 ) ;
#87 = ADVANCED_FACE ( 'NONE', ( #227 ), #188, .T. ) ;
#88 = DIRECTION ( 'NONE',  ( 1.000000000000000000, 0.000000000000000000, -0.000000000000000000 ) ) ;
#89 = PERSON ( 'NEURÈENÝ', 'NEURÈENÝ', 'NEURÈENÝ', ('NEURÈENÝ'), ('NEURÈENÝ'), ('NEURÈENÝ') ) ;
#90 = CLOSED_SHELL ( 'NONE', ( #7, #71, #177, #17, #75, #81, #87 ) ) ;
#91 = DESIGN_CONTEXT ( 'detailed design', #195, 'design' ) ;
#92 = LINE ( 'NONE', #111, #22 ) ;
#93 = DIRECTION ( 'NONE',  ( 1.000000000000000000, 0.000000000000000000, 0.000000000000000000 ) ) ;
#94 = APPROVAL ( #74, 'NEURÈENÝ' ) ;
#95 =( NAMED_UNIT ( * ) SI_UNIT ( $, .STERADIAN. ) SOLID_ANGLE_UNIT ( ) );
#96 = DATE_TIME_ROLE ( 'classification_date' ) ;
#97 = DATE_AND_TIME ( #196, #246 ) ;
#98 = CIRCLE ( 'NONE', #33, 11.00000000000000000 ) ;
#99 = COORDINATED_UNIVERSAL_TIME_OFFSET ( 1, 0, .AHEAD. ) ;
#100 = CC_DESIGN_APPROVAL ( #208, ( #143 ) ) ;
#101 = DATE_TIME_ROLE ( 'creation_date' ) ;
#102 = CIRCLE ( 'NONE', #35, 11.00000000000000000 ) ;
#103 = LOCAL_TIME ( 19, 6, 14.00000000000000000, #217 ) ;
#104 = ORIENTED_EDGE ( 'NONE', *, *, #200, .T. ) ;
#105 = FACE_OUTER_BOUND ( 'NONE', #162, .T. ) ;
#106 = CARTESIAN_POINT ( 'NONE',  ( 0.000000000000000000, 0.000000000000000000, 167.0000000000000000 ) ) ;
#107 = EDGE_CURVE ( 'NONE', #2, #205, #28, .T. ) ;
#108 = FACE_OUTER_BOUND ( 'NONE', #197, .T. ) ;
#109 = CARTESIAN_POINT ( 'NONE',  ( -11.00000000000000000, 0.000000000000000000, 0.000000000000000000 ) ) ;
#110 = DIRECTION ( 'NONE',  ( 0.000000000000000000, 0.000000000000000000, 1.000000000000000000 ) ) ;
#111 = CARTESIAN_POINT ( 'NONE',  ( -8.500000000000000000, 0.000000000000000000, 167.0000000000000000 ) ) ;
#112 = DIRECTION ( 'NONE',  ( 0.000000000000000000, 0.000000000000000000, 1.000000000000000000 ) ) ;
#113 = EDGE_LOOP ( 'NONE', ( #80, #78 ) ) ;
#114 = APPROVAL_STATUS ( 'not_yet_approved' ) ;
#115 = VERTEX_POINT ( 'NONE', #151 ) ;
#116 = CALENDAR_DATE ( 2022, 7, 7 ) ;
#117 = CARTESIAN_POINT ( 'NONE',  ( 0.000000000000000000, 0.000000000000000000, 7.000000000000000000 ) ) ;
#118 = AXIS2_PLACEMENT_3D ( 'NONE', #169, #63, #248 ) ;
#119 = AXIS2_PLACEMENT_3D ( 'NONE', #73, #112, #56 ) ;
#120 = FACE_OUTER_BOUND ( 'NONE', #113, .T. ) ;
#121 = DIRECTION ( 'NONE',  ( -1.000000000000000000, 0.000000000000000000, 0.000000000000000000 ) ) ;
#122 = CC_DESIGN_PERSON_AND_ORGANIZATION_ASSIGNMENT ( #20, #253, ( #62 ) ) ;
#123 = CYLINDRICAL_SURFACE ( 'NONE', #118, 8.500000000000000000 ) ;
#124 = CIRCLE ( 'NONE', #65, 8.500000000000000000 ) ;
#125 = CARTESIAN_POINT ( 'NONE',  ( 0.000000000000000000, 0.000000000000000000, 7.000000000000000000 ) ) ;
#126 = CC_DESIGN_PERSON_AND_ORGANIZATION_ASSIGNMENT ( #42, #219, ( #143 ) ) ;
#127 = DIRECTION ( 'NONE',  ( -0.000000000000000000, -0.000000000000000000, -1.000000000000000000 ) ) ;
#128 = DATE_AND_TIME ( #230, #186 ) ;
#129 = PRODUCT_DEFINITION_FORMATION_WITH_SPECIFIED_SOURCE ( 'LIBOVOLNÝ', '', #62, .NOT_KNOWN. ) ;
#130 = CARTESIAN_POINT ( 'NONE',  ( 0.000000000000000000, 0.000000000000000000, 7.000000000000000000 ) ) ;
#131 = MECHANICAL_CONTEXT ( 'NONE', #154, 'mechanical' ) ;
#132 = EDGE_CURVE ( 'NONE', #205, #2, #53, .T. ) ;
#133 = DIRECTION ( 'NONE',  ( -0.000000000000000000, -0.000000000000000000, -1.000000000000000000 ) ) ;
#134 = LOCAL_TIME ( 19, 6, 14.00000000000000000, #99 ) ;
#135 = APPROVAL_DATE_TIME ( #128, #208 ) ;
#136 = CC_DESIGN_PERSON_AND_ORGANIZATION_ASSIGNMENT ( #138, #159, ( #129 ) ) ;
#137 = ORIENTED_EDGE ( 'NONE', *, *, #181, .F. ) ;
#138 = PERSON_AND_ORGANIZATION ( #89, #51 ) ;
#139 = EDGE_CURVE ( 'NONE', #115, #61, #64, .T. ) ;
#140 = ORIENTED_EDGE ( 'NONE', *, *, #132, .F. ) ;
#141 = SECURITY_CLASSIFICATION_LEVEL ( 'unclassified' ) ;
#142 = VERTEX_POINT ( 'NONE', #52 ) ;
#143 = PRODUCT_DEFINITION ( 'NEZNÁMÝ', '', #129, #91 ) ;
#144 = PERSON_AND_ORGANIZATION ( #89, #51 ) ;
#145 = APPROVAL_PERSON_ORGANIZATION ( #5, #94, #25 ) ;
#146 = EDGE_LOOP ( 'NONE', ( #137, #41 ) ) ;
#147 = PRODUCT_DEFINITION_SHAPE ( 'NONE', 'NONE',  #143 ) ;
#148 = ORIENTED_EDGE ( 'NONE', *, *, #139, .T. ) ;
#149 = AXIS2_PLACEMENT_3D ( 'NONE', #150, #184, #11 ) ;
#150 = CARTESIAN_POINT ( 'NONE',  ( 0.000000000000000000, 0.000000000000000000, 167.0000000000000000 ) ) ;
#151 = CARTESIAN_POINT ( 'NONE',  ( 8.500000000000000000, 1.040949779275250140E-15, 7.000000000000000000 ) ) ;
#152 = DIRECTION ( 'NONE',  ( -0.000000000000000000, -0.000000000000000000, -1.000000000000000000 ) ) ;
#153 = CYLINDRICAL_SURFACE ( 'NONE', #16, 11.00000000000000000 ) ;
#154 = APPLICATION_CONTEXT ( 'configuration controlled 3d designs of mechanical parts and assemblies' ) ;
#155 = DIRECTION ( 'NONE',  ( -0.000000000000000000, -0.000000000000000000, -1.000000000000000000 ) ) ;
#156 = APPROVAL_STATUS ( 'not_yet_approved' ) ;
#157 = DIRECTION ( 'NONE',  ( 0.000000000000000000, 0.000000000000000000, 1.000000000000000000 ) ) ;
#158 = COORDINATED_UNIVERSAL_TIME_OFFSET ( 1, 0, .AHEAD. ) ;
#159 = PERSON_AND_ORGANIZATION_ROLE ( 'design_supplier' ) ;
#160 = ORIENTED_EDGE ( 'NONE', *, *, #243, .T. ) ;
#161 = PERSON_AND_ORGANIZATION_ROLE ( 'creator' ) ;
#162 = EDGE_LOOP ( 'NONE', ( #26, #140, #104, #237 ) ) ;
#163 = CIRCLE ( 'NONE', #250, 11.00000000000000000 ) ;
#164 = ORIENTED_EDGE ( 'NONE', *, *, #59, .F. ) ;
#165 = EDGE_LOOP ( 'NONE', ( #241, #45, #160, #9 ) ) ;
#166 = EDGE_CURVE ( 'NONE', #182, #142, #98, .T. ) ;
#167 = CARTESIAN_POINT ( 'NONE',  ( -8.500000000000000000, 0.000000000000000000, 7.000000000000000000 ) ) ;
#168 = CYLINDRICAL_SURFACE ( 'NONE', #226, 8.500000000000000000 ) ;
#169 = CARTESIAN_POINT ( 'NONE',  ( 0.000000000000000000, 0.000000000000000000, 167.0000000000000000 ) ) ;
#170 = EDGE_CURVE ( 'NONE', #142, #4, #212, .T. ) ;
#171 = PERSON_AND_ORGANIZATION ( #89, #51 ) ;
#172 = DIRECTION ( 'NONE',  ( 0.000000000000000000, 0.000000000000000000, 1.000000000000000000 ) ) ;
#173 = CC_DESIGN_DATE_AND_TIME_ASSIGNMENT ( #176, #96, ( #254 ) ) ;
#174 = EDGE_CURVE ( 'NONE', #142, #182, #8, .T. ) ;
#175 = CARTESIAN_POINT ( 'NONE',  ( 0.000000000000000000, 0.000000000000000000, 7.000000000000000000 ) ) ;
#176 = DATE_AND_TIME ( #116, #103 ) ;
#177 = ADVANCED_FACE ( 'NONE', ( #192 ), #19, .T. ) ;
#178 = ORIENTED_EDGE ( 'NONE', *, *, #107, .F. ) ;
#179 = CALENDAR_DATE ( 2022, 7, 7 ) ;
#180 = ORIENTED_EDGE ( 'NONE', *, *, #200, .F. ) ;
#181 = EDGE_CURVE ( 'NONE', #61, #115, #124, .T. ) ;
#182 = VERTEX_POINT ( 'NONE', #18 ) ;
#183 = APPROVAL_PERSON_ORGANIZATION ( #171, #208, #251 ) ;
#184 = DIRECTION ( 'NONE',  ( 0.000000000000000000, 0.000000000000000000, 1.000000000000000000 ) ) ;
#185 = DIRECTION ( 'NONE',  ( -0.000000000000000000, -0.000000000000000000, -1.000000000000000000 ) ) ;
#186 = LOCAL_TIME ( 19, 6, 14.00000000000000000, #70 ) ;
#187 = CARTESIAN_POINT ( 'NONE',  ( 8.500000000000000000, 1.040949779275250140E-15, 167.0000000000000000 ) ) ;
#188 = PLANE ( 'NONE',  #149 ) ;
#189 = VECTOR ( 'NONE', #185, 1000.000000000000000 ) ;
#190 = DIRECTION ( 'NONE',  ( 1.000000000000000000, 0.000000000000000000, 0.000000000000000000 ) ) ;
#191 = DIRECTION ( 'NONE',  ( 1.000000000000000000, 0.000000000000000000, 0.000000000000000000 ) ) ;
#192 = FACE_OUTER_BOUND ( 'NONE', #244, .T. ) ;
#193 = CARTESIAN_POINT ( 'NONE',  ( -8.500000000000000000, 0.000000000000000000, 167.0000000000000000 ) ) ;
#194 = APPROVAL_ROLE ( '' ) ;
#195 = APPLICATION_CONTEXT ( 'configuration controlled 3d designs of mechanical parts and assemblies' ) ;
#196 = CALENDAR_DATE ( 2022, 7, 7 ) ;
#197 = EDGE_LOOP ( 'NONE', ( #178, #83, #148, #180 ) ) ;
#198 = CC_DESIGN_DATE_AND_TIME_ASSIGNMENT ( #97, #101, ( #143 ) ) ;
#199 = DATE_AND_TIME ( #179, #134 ) ;
#200 = EDGE_CURVE ( 'NONE', #205, #61, #92, .T. ) ;
#201 = ORIENTED_EDGE ( 'NONE', *, *, #174, .F. ) ;
#202 = EDGE_LOOP ( 'NONE', ( #164, #43 ) ) ;
#203 = CARTESIAN_POINT ( 'NONE',  ( 0.000000000000000000, 0.000000000000000000, 0.000000000000000000 ) ) ;
#204 = DIRECTION ( 'NONE',  ( 1.000000000000000000, 0.000000000000000000, 0.000000000000000000 ) ) ;
#205 = VERTEX_POINT ( 'NONE', #193 ) ;
#206 = EDGE_CURVE ( 'NONE', #182, #218, #15, .T. ) ;
#207 = DIRECTION ( 'NONE',  ( 1.000000000000000000, 0.000000000000000000, -0.000000000000000000 ) ) ;
#208 = APPROVAL ( #156, 'NEURÈENÝ' ) ;
#209 = AXIS2_PLACEMENT_3D ( 'NONE', #117, #58, #191 ) ;
#210 =( NAMED_UNIT ( * ) PLANE_ANGLE_UNIT ( ) SI_UNIT ( $, .RADIAN. ) );
#211 =( GEOMETRIC_REPRESENTATION_CONTEXT ( 3 ) GLOBAL_UNCERTAINTY_ASSIGNED_CONTEXT ( ( #68 ) ) GLOBAL_UNIT_ASSIGNED_CONTEXT ( ( #252, #210, #95 ) ) REPRESENTATION_CONTEXT ( 'NONE', 'WORKASPACE' ) );
#212 = LINE ( 'NONE', #37, #234 ) ;
#213 = APPLICATION_PROTOCOL_DEFINITION ( 'international standard', 'config_control_design', 1994, #154 ) ;
#214 = AXIS2_PLACEMENT_3D ( 'NONE', #125, #66, #207 ) ;
#215 = DIRECTION ( 'NONE',  ( 0.000000000000000000, 0.000000000000000000, 1.000000000000000000 ) ) ;
#216 = CC_DESIGN_APPROVAL ( #24, ( #129 ) ) ;
#217 = COORDINATED_UNIVERSAL_TIME_OFFSET ( 1, 0, .AHEAD. ) ;
#218 = VERTEX_POINT ( 'NONE', #36 ) ;
#219 = PERSON_AND_ORGANIZATION_ROLE ( 'creator' ) ;
#220 = APPROVAL_PERSON_ORGANIZATION ( #235, #24, #194 ) ;
#221 = ORIENTED_EDGE ( 'NONE', *, *, #206, .F. ) ;
#222 = ORIENTED_EDGE ( 'NONE', *, *, #132, .T. ) ;
#223 = FACE_BOUND ( 'NONE', #146, .T. ) ;
#224 = CARTESIAN_POINT ( 'NONE',  ( 0.000000000000000000, 0.000000000000000000, 167.0000000000000000 ) ) ;
#225 = FACE_OUTER_BOUND ( 'NONE', #202, .T. ) ;
#226 = AXIS2_PLACEMENT_3D ( 'NONE', #106, #152, #121 ) ;
#227 = FACE_OUTER_BOUND ( 'NONE', #10, .T. ) ;
#228 = APPLICATION_PROTOCOL_DEFINITION ( 'international standard', 'config_control_design', 1994, #195 ) ;
#229 = CC_DESIGN_PERSON_AND_ORGANIZATION_ASSIGNMENT ( #57, #23, ( #254 ) ) ;
#230 = CALENDAR_DATE ( 2022, 7, 7 ) ;
#231 = CARTESIAN_POINT ( 'NONE',  ( 11.00000000000000000, 1.347111479062088405E-15, 7.000000000000000000 ) ) ;
#232 = CARTESIAN_POINT ( 'NONE',  ( 0.000000000000000000, 0.000000000000000000, 0.000000000000000000 ) ) ;
#233 = AXIS2_PLACEMENT_3D ( 'NONE', #30, #34, #88 ) ;
#234 = VECTOR ( 'NONE', #155, 1000.000000000000000 ) ;
#235 = PERSON_AND_ORGANIZATION ( #89, #51 ) ;
#236 = CC_DESIGN_PERSON_AND_ORGANIZATION_ASSIGNMENT ( #144, #161, ( #129 ) ) ;
#237 = ORIENTED_EDGE ( 'NONE', *, *, #181, .T. ) ;
#238 = APPROVAL_DATE_TIME ( #199, #94 ) ;
#239 = ORIENTED_EDGE ( 'NONE', *, *, #59, .T. ) ;
#240 = SHAPE_DEFINITION_REPRESENTATION ( #147, #55 ) ;
#241 = ORIENTED_EDGE ( 'NONE', *, *, #166, .F. ) ;
#242 = ORIENTED_EDGE ( 'NONE', *, *, #170, .T. ) ;
#243 = EDGE_CURVE ( 'NONE', #218, #4, #163, .T. ) ;
#244 = EDGE_LOOP ( 'NONE', ( #221, #201, #242, #239 ) ) ;
#245 = DIRECTION ( 'NONE',  ( 0.000000000000000000, 0.000000000000000000, 1.000000000000000000 ) ) ;
#246 = LOCAL_TIME ( 19, 6, 14.00000000000000000, #158 ) ;
#247 = PLANE ( 'NONE',  #233 ) ;
#248 = DIRECTION ( 'NONE',  ( -1.000000000000000000, 0.000000000000000000, 0.000000000000000000 ) ) ;
#249 = MANIFOLD_SOLID_BREP ( 'Pøidat vysunutím3', #90 ) ;
#250 = AXIS2_PLACEMENT_3D ( 'NONE', #232, #110, #93 ) ;
#251 = APPROVAL_ROLE ( '' ) ;
#252 =( LENGTH_UNIT ( ) NAMED_UNIT ( * ) SI_UNIT ( .MILLI., .METRE. ) );
#253 = PERSON_AND_ORGANIZATION_ROLE ( 'design_owner' ) ;
#254 = SECURITY_CLASSIFICATION ( '', '', #141 ) ;
#255 = DIRECTION ( 'NONE',  ( 1.000000000000000000, 0.000000000000000000, 0.000000000000000000 ) ) ;
ENDSEC;
END-ISO-10303-21;
