ISO-10303-21;
HEADER;
FILE_DESCRIPTION (( 'STEP AP203' ),
    '1' );
FILE_NAME ('5b1e.STEP',
    '2023-02-13T16:07:32',
    ( '' ),
    ( '' ),
    'SwSTEP 2.0',
    'SolidWorks 2019',
    '' );
FILE_SCHEMA (( 'CONFIG_CONTROL_DESIGN' ));
ENDSEC;

DATA;
#1 = CC_DESIGN_APPROVAL ( #197, ( #228 ) ) ;
#2 = EDGE_CURVE ( 'NONE', #207, #92, #227, .T. ) ;
#3 = VERTEX_POINT ( 'NONE', #29 ) ;
#4 = CARTESIAN_POINT ( 'NONE',  ( 0.000000000000000000, 0.000000000000000000, 3.000000000000000000 ) ) ;
#5 = CC_DESIGN_SECURITY_CLASSIFICATION ( #228, ( #55 ) ) ;
#6 = PRODUCT_DEFINITION ( 'NEZNÁMÝ', '', #55, #213 ) ;
#7 = CIRCLE ( 'NONE', #144, 2.100000000000000089 ) ;
#8 = PERSON_AND_ORGANIZATION_ROLE ( 'classification_officer' ) ;
#9 =( NAMED_UNIT ( * ) SI_UNIT ( $, .STERADIAN. ) SOLID_ANGLE_UNIT ( ) );
#10 = CARTESIAN_POINT ( 'NONE',  ( 0.000000000000000000, 0.000000000000000000, 0.000000000000000000 ) ) ;
#11 = PERSON_AND_ORGANIZATION ( #93, #243 ) ;
#12 = ORIENTED_EDGE ( 'NONE', *, *, #2, .T. ) ;
#13 = PERSON_AND_ORGANIZATION_ROLE ( 'creator' ) ;
#14 = DIRECTION ( 'NONE',  ( 1.000000000000000000, 0.000000000000000000, 0.000000000000000000 ) ) ;
#15 = ORIENTED_EDGE ( 'NONE', *, *, #88, .T. ) ;
#16 = EDGE_CURVE ( 'NONE', #169, #3, #128, .T. ) ;
#17 = ORIENTED_EDGE ( 'NONE', *, *, #215, .F. ) ;
#18 = ADVANCED_FACE ( 'NONE', ( #73 ), #168, .T. ) ;
#19 = DIRECTION ( 'NONE',  ( 1.000000000000000000, 0.000000000000000000, 0.000000000000000000 ) ) ;
#20 = DIRECTION ( 'NONE',  ( 1.000000000000000000, 0.000000000000000000, 0.000000000000000000 ) ) ;
#21 = DIRECTION ( 'NONE',  ( 1.000000000000000000, 0.000000000000000000, 0.000000000000000000 ) ) ;
#22 = APPROVAL_ROLE ( '' ) ;
#23 = ADVANCED_FACE ( 'NONE', ( #230 ), #58, .T. ) ;
#24 = MECHANICAL_CONTEXT ( 'NONE', #233, 'mechanical' ) ;
#25 = SECURITY_CLASSIFICATION_LEVEL ( 'unclassified' ) ;
#26 = DIRECTION ( 'NONE',  ( -1.000000000000000000, 0.000000000000000000, 0.000000000000000000 ) ) ;
#27 = CC_DESIGN_DATE_AND_TIME_ASSIGNMENT ( #127, #208, ( #6 ) ) ;
#28 = DATE_AND_TIME ( #108, #119 ) ;
#29 = CARTESIAN_POINT ( 'NONE',  ( 2.100000000000000089, 2.571758278209441464E-16, 3.000000000000000000 ) ) ;
#30 = APPROVAL_DATE_TIME ( #72, #197 ) ;
#31 = DIRECTION ( 'NONE',  ( -0.000000000000000000, -0.000000000000000000, -1.000000000000000000 ) ) ;
#32 = ORIENTED_EDGE ( 'NONE', *, *, #159, .T. ) ;
#33 = ORIENTED_EDGE ( 'NONE', *, *, #123, .T. ) ;
#34 = LINE ( 'NONE', #193, #137 ) ;
#35 = CARTESIAN_POINT ( 'NONE',  ( 0.000000000000000000, 0.000000000000000000, 500.0000000000000000 ) ) ;
#36 = DIRECTION ( 'NONE',  ( 0.000000000000000000, 0.000000000000000000, 1.000000000000000000 ) ) ;
#37 = AXIS2_PLACEMENT_3D ( 'NONE', #139, #97, #43 ) ;
#38 = AXIS2_PLACEMENT_3D ( 'NONE', #104, #138, #178 ) ;
#39 = UNCERTAINTY_MEASURE_WITH_UNIT (LENGTH_MEASURE( 1.000000000000000082E-05 ), #136, 'distance_accuracy_value', 'NONE');
#40 = CARTESIAN_POINT ( 'NONE',  ( 4.000000000000000000, 4.898587196589412829E-16, 3.000000000000000000 ) ) ;
#41 = ADVANCED_FACE ( 'NONE', ( #107 ), #184, .F. ) ;
#42 = APPROVAL_PERSON_ORGANIZATION ( #52, #229, #67 ) ;
#43 = DIRECTION ( 'NONE',  ( -1.000000000000000000, 0.000000000000000000, 0.000000000000000000 ) ) ;
#44 = AXIS2_PLACEMENT_3D ( 'NONE', #90, #31, #205 ) ;
#45 = ADVANCED_FACE ( 'NONE', ( #86, #158 ), #220, .T. ) ;
#46 = DIRECTION ( 'NONE',  ( 1.000000000000000000, 0.000000000000000000, 0.000000000000000000 ) ) ;
#47 = COORDINATED_UNIVERSAL_TIME_OFFSET ( 1, 0, .AHEAD. ) ;
#48 = PERSON_AND_ORGANIZATION_ROLE ( 'design_supplier' ) ;
#49 = ORIENTED_EDGE ( 'NONE', *, *, #231, .F. ) ;
#50 = EDGE_CURVE ( 'NONE', #92, #56, #51, .T. ) ;
#51 = CIRCLE ( 'NONE', #84, 4.000000000000000000 ) ;
#52 = PERSON_AND_ORGANIZATION ( #93, #243 ) ;
#53 = ORIENTED_EDGE ( 'NONE', *, *, #16, .F. ) ;
#54 = APPLICATION_CONTEXT ( 'configuration controlled 3d designs of mechanical parts and assemblies' ) ;
#55 = PRODUCT_DEFINITION_FORMATION_WITH_SPECIFIED_SOURCE ( 'LIBOVOLNÝ', '', #141, .NOT_KNOWN. ) ;
#56 = VERTEX_POINT ( 'NONE', #63 ) ;
#57 = ORIENTED_EDGE ( 'NONE', *, *, #231, .T. ) ;
#58 = CYLINDRICAL_SURFACE ( 'NONE', #44, 2.100000000000000089 ) ;
#59 = CARTESIAN_POINT ( 'NONE',  ( -2.100000000000000089, 0.000000000000000000, 3.000000000000000000 ) ) ;
#60 = LOCAL_TIME ( 17, 7, 32.00000000000000000, #226 ) ;
#61 = CARTESIAN_POINT ( 'NONE',  ( -2.100000000000000089, 0.000000000000000000, 500.0000000000000000 ) ) ;
#62 = CC_DESIGN_PERSON_AND_ORGANIZATION_ASSIGNMENT ( #182, #8, ( #228 ) ) ;
#63 = CARTESIAN_POINT ( 'NONE',  ( -4.000000000000000000, 0.000000000000000000, 0.000000000000000000 ) ) ;
#64 = FACE_OUTER_BOUND ( 'NONE', #111, .T. ) ;
#65 = FACE_OUTER_BOUND ( 'NONE', #96, .T. ) ;
#66 = APPROVAL_ROLE ( '' ) ;
#67 = APPROVAL_ROLE ( '' ) ;
#68 = LOCAL_TIME ( 17, 7, 32.00000000000000000, #47 ) ;
#69 = APPROVAL_STATUS ( 'not_yet_approved' ) ;
#70 = VERTEX_POINT ( 'NONE', #124 ) ;
#71 = AXIS2_PLACEMENT_3D ( 'NONE', #255, #236, #195 ) ;
#72 = DATE_AND_TIME ( #245, #82 ) ;
#73 = FACE_OUTER_BOUND ( 'NONE', #212, .T. ) ;
#74 = EDGE_LOOP ( 'NONE', ( #53, #173 ) ) ;
#75 = ORIENTED_EDGE ( 'NONE', *, *, #16, .T. ) ;
#76 = CC_DESIGN_PERSON_AND_ORGANIZATION_ASSIGNMENT ( #162, #132, ( #141 ) ) ;
#77 = CARTESIAN_POINT ( 'NONE',  ( -4.000000000000000000, 0.000000000000000000, 3.000000000000000000 ) ) ;
#78 = DIRECTION ( 'NONE',  ( 0.000000000000000000, 0.000000000000000000, 1.000000000000000000 ) ) ;
#79 = VECTOR ( 'NONE', #131, 1000.000000000000000 ) ;
#80 = DIRECTION ( 'NONE',  ( 0.000000000000000000, 0.000000000000000000, 1.000000000000000000 ) ) ;
#81 = CARTESIAN_POINT ( 'NONE',  ( 0.000000000000000000, 0.000000000000000000, 3.000000000000000000 ) ) ;
#82 = LOCAL_TIME ( 17, 7, 32.00000000000000000, #143 ) ;
#83 = LOCAL_TIME ( 17, 7, 32.00000000000000000, #89 ) ;
#84 = AXIS2_PLACEMENT_3D ( 'NONE', #254, #80, #20 ) ;
#85 = AXIS2_PLACEMENT_3D ( 'NONE', #161, #106, #46 ) ;
#86 = FACE_BOUND ( 'NONE', #74, .T. ) ;
#87 =( NAMED_UNIT ( * ) PLANE_ANGLE_UNIT ( ) SI_UNIT ( $, .RADIAN. ) );
#88 = EDGE_CURVE ( 'NONE', #70, #250, #177, .T. ) ;
#89 = COORDINATED_UNIVERSAL_TIME_OFFSET ( 1, 0, .AHEAD. ) ;
#90 = CARTESIAN_POINT ( 'NONE',  ( 0.000000000000000000, 0.000000000000000000, 500.0000000000000000 ) ) ;
#91 = DATE_TIME_ROLE ( 'classification_date' ) ;
#92 = VERTEX_POINT ( 'NONE', #238 ) ;
#93 = PERSON ( 'NEURÈENÝ', 'NEURÈENÝ', 'NEURÈENÝ', ('NEURÈENÝ'), ('NEURÈENÝ'), ('NEURÈENÝ') ) ;
#94 = ORIENTED_EDGE ( 'NONE', *, *, #88, .F. ) ;
#95 = EDGE_LOOP ( 'NONE', ( #32, #57 ) ) ;
#96 = EDGE_LOOP ( 'NONE', ( #146, #148, #192, #75 ) ) ;
#97 = DIRECTION ( 'NONE',  ( -0.000000000000000000, -0.000000000000000000, -1.000000000000000000 ) ) ;
#98 = DIRECTION ( 'NONE',  ( -0.000000000000000000, -0.000000000000000000, -1.000000000000000000 ) ) ;
#99 = DIRECTION ( 'NONE',  ( 0.000000000000000000, 0.000000000000000000, 1.000000000000000000 ) ) ;
#100 = AXIS2_PLACEMENT_3D ( 'NONE', #4, #115, #175 ) ;
#101 = DIRECTION ( 'NONE',  ( 0.000000000000000000, 0.000000000000000000, 1.000000000000000000 ) ) ;
#102 = CIRCLE ( 'NONE', #171, 4.000000000000000000 ) ;
#103 = AXIS2_PLACEMENT_3D ( 'NONE', #232, #101, #253 ) ;
#104 = CARTESIAN_POINT ( 'NONE',  ( 0.000000000000000000, 0.000000000000000000, 500.0000000000000000 ) ) ;
#105 = PERSON_AND_ORGANIZATION ( #93, #243 ) ;
#106 = DIRECTION ( 'NONE',  ( 0.000000000000000000, 0.000000000000000000, 1.000000000000000000 ) ) ;
#107 = FACE_OUTER_BOUND ( 'NONE', #211, .T. ) ;
#108 = CALENDAR_DATE ( 2023, 13, 2 ) ;
#109 = CC_DESIGN_APPROVAL ( #120, ( #6 ) ) ;
#110 = ORIENTED_EDGE ( 'NONE', *, *, #2, .F. ) ;
#111 = EDGE_LOOP ( 'NONE', ( #129, #15 ) ) ;
#112 = CIRCLE ( 'NONE', #100, 4.000000000000000000 ) ;
#113 = ORIENTED_EDGE ( 'NONE', *, *, #183, .F. ) ;
#114 = EDGE_LOOP ( 'NONE', ( #110, #248, #209, #225 ) ) ;
#115 = DIRECTION ( 'NONE',  ( 0.000000000000000000, 0.000000000000000000, 1.000000000000000000 ) ) ;
#116 = AXIS2_PLACEMENT_3D ( 'NONE', #10, #166, #244 ) ;
#117 = CYLINDRICAL_SURFACE ( 'NONE', #38, 2.100000000000000089 ) ;
#118 = DIRECTION ( 'NONE',  ( 1.000000000000000000, 0.000000000000000000, 0.000000000000000000 ) ) ;
#119 = LOCAL_TIME ( 17, 7, 32.00000000000000000, #204 ) ;
#120 = APPROVAL ( #69, 'NEURÈENÝ' ) ;
#121 = CARTESIAN_POINT ( 'NONE',  ( 0.000000000000000000, 0.000000000000000000, 0.000000000000000000 ) ) ;
#122 =( GEOMETRIC_REPRESENTATION_CONTEXT ( 3 ) GLOBAL_UNCERTAINTY_ASSIGNED_CONTEXT ( ( #39 ) ) GLOBAL_UNIT_ASSIGNED_CONTEXT ( ( #136, #87, #9 ) ) REPRESENTATION_CONTEXT ( 'NONE', 'WORKASPACE' ) );
#123 = EDGE_CURVE ( 'NONE', #3, #169, #188, .T. ) ;
#124 = CARTESIAN_POINT ( 'NONE',  ( 2.100000000000000089, 2.571758278209441464E-16, 500.0000000000000000 ) ) ;
#125 = AXIS2_PLACEMENT_3D ( 'NONE', #172, #134, #14 ) ;
#126 = PERSON_AND_ORGANIZATION_ROLE ( 'creator' ) ;
#127 = DATE_AND_TIME ( #163, #68 ) ;
#128 = CIRCLE ( 'NONE', #125, 2.100000000000000089 ) ;
#129 = ORIENTED_EDGE ( 'NONE', *, *, #165, .T. ) ;
#130 = APPROVAL_STATUS ( 'not_yet_approved' ) ;
#131 = DIRECTION ( 'NONE',  ( -0.000000000000000000, -0.000000000000000000, -1.000000000000000000 ) ) ;
#132 = PERSON_AND_ORGANIZATION_ROLE ( 'design_owner' ) ;
#133 = VERTEX_POINT ( 'NONE', #77 ) ;
#134 = DIRECTION ( 'NONE',  ( 0.000000000000000000, 0.000000000000000000, 1.000000000000000000 ) ) ;
#135 = CYLINDRICAL_SURFACE ( 'NONE', #37, 4.000000000000000000 ) ;
#136 =( LENGTH_UNIT ( ) NAMED_UNIT ( * ) SI_UNIT ( .MILLI., .METRE. ) );
#137 = VECTOR ( 'NONE', #157, 1000.000000000000000 ) ;
#138 = DIRECTION ( 'NONE',  ( -0.000000000000000000, -0.000000000000000000, -1.000000000000000000 ) ) ;
#139 = CARTESIAN_POINT ( 'NONE',  ( 0.000000000000000000, 0.000000000000000000, 3.000000000000000000 ) ) ;
#140 = EDGE_CURVE ( 'NONE', #70, #3, #34, .T. ) ;
#141 = PRODUCT ( '5b1e', '5b1e', '', ( #24 ) ) ;
#142 = CARTESIAN_POINT ( 'NONE',  ( -4.000000000000000000, 0.000000000000000000, 3.000000000000000000 ) ) ;
#143 = COORDINATED_UNIVERSAL_TIME_OFFSET ( 1, 0, .AHEAD. ) ;
#144 = AXIS2_PLACEMENT_3D ( 'NONE', #35, #78, #19 ) ;
#145 = PERSON_AND_ORGANIZATION ( #93, #243 ) ;
#146 = ORIENTED_EDGE ( 'NONE', *, *, #140, .F. ) ;
#147 = SHAPE_DEFINITION_REPRESENTATION ( #241, #194 ) ;
#148 = ORIENTED_EDGE ( 'NONE', *, *, #165, .F. ) ;
#149 = ORIENTED_EDGE ( 'NONE', *, *, #219, .F. ) ;
#150 = CC_DESIGN_PERSON_AND_ORGANIZATION_ASSIGNMENT ( #202, #126, ( #6 ) ) ;
#151 = ORIENTED_EDGE ( 'NONE', *, *, #50, .F. ) ;
#152 = AXIS2_PLACEMENT_3D ( 'NONE', #187, #246, #26 ) ;
#153 = CARTESIAN_POINT ( 'NONE',  ( 4.000000000000000000, 4.898587196589412829E-16, 3.000000000000000000 ) ) ;
#154 = CARTESIAN_POINT ( 'NONE',  ( 0.000000000000000000, 0.000000000000000000, 500.0000000000000000 ) ) ;
#155 = PLANE ( 'NONE',  #185 ) ;
#156 = CC_DESIGN_DATE_AND_TIME_ASSIGNMENT ( #242, #91, ( #228 ) ) ;
#157 = DIRECTION ( 'NONE',  ( -0.000000000000000000, -0.000000000000000000, -1.000000000000000000 ) ) ;
#158 = FACE_OUTER_BOUND ( 'NONE', #95, .T. ) ;
#159 = EDGE_CURVE ( 'NONE', #133, #207, #112, .T. ) ;
#160 = AXIS2_PLACEMENT_3D ( 'NONE', #218, #36, #251 ) ;
#161 = CARTESIAN_POINT ( 'NONE',  ( 0.000000000000000000, 0.000000000000000000, 0.000000000000000000 ) ) ;
#162 = PERSON_AND_ORGANIZATION ( #93, #243 ) ;
#163 = CALENDAR_DATE ( 2023, 13, 2 ) ;
#164 = APPROVAL_PERSON_ORGANIZATION ( #145, #120, #22 ) ;
#165 = EDGE_CURVE ( 'NONE', #250, #70, #7, .T. ) ;
#166 = DIRECTION ( 'NONE',  ( 0.000000000000000000, 0.000000000000000000, 1.000000000000000000 ) ) ;
#167 = APPROVAL_DATE_TIME ( #28, #229 ) ;
#168 = CYLINDRICAL_SURFACE ( 'NONE', #152, 4.000000000000000000 ) ;
#169 = VERTEX_POINT ( 'NONE', #59 ) ;
#170 = ADVANCED_FACE ( 'NONE', ( #64 ), #155, .T. ) ;
#171 = AXIS2_PLACEMENT_3D ( 'NONE', #81, #99, #21 ) ;
#172 = CARTESIAN_POINT ( 'NONE',  ( 0.000000000000000000, 0.000000000000000000, 3.000000000000000000 ) ) ;
#173 = ORIENTED_EDGE ( 'NONE', *, *, #123, .F. ) ;
#174 = DIRECTION ( 'NONE',  ( 0.000000000000000000, 0.000000000000000000, 1.000000000000000000 ) ) ;
#175 = DIRECTION ( 'NONE',  ( 1.000000000000000000, 0.000000000000000000, 0.000000000000000000 ) ) ;
#176 = LINE ( 'NONE', #61, #217 ) ;
#177 = CIRCLE ( 'NONE', #71, 2.100000000000000089 ) ;
#178 = DIRECTION ( 'NONE',  ( -1.000000000000000000, 0.000000000000000000, 0.000000000000000000 ) ) ;
#179 = ADVANCED_FACE ( 'NONE', ( #196 ), #135, .T. ) ;
#180 = VECTOR ( 'NONE', #98, 1000.000000000000000 ) ;
#181 = CALENDAR_DATE ( 2023, 13, 2 ) ;
#182 = PERSON_AND_ORGANIZATION ( #93, #243 ) ;
#183 = EDGE_CURVE ( 'NONE', #133, #56, #234, .T. ) ;
#184 = PLANE ( 'NONE',  #116 ) ;
#185 = AXIS2_PLACEMENT_3D ( 'NONE', #154, #174, #216 ) ;
#186 = PERSON_AND_ORGANIZATION ( #93, #243 ) ;
#187 = CARTESIAN_POINT ( 'NONE',  ( 0.000000000000000000, 0.000000000000000000, 3.000000000000000000 ) ) ;
#188 = CIRCLE ( 'NONE', #103, 2.100000000000000089 ) ;
#189 = ORIENTED_EDGE ( 'NONE', *, *, #140, .T. ) ;
#190 = ORIENTED_EDGE ( 'NONE', *, *, #50, .T. ) ;
#191 = CC_DESIGN_APPROVAL ( #229, ( #55 ) ) ;
#192 = ORIENTED_EDGE ( 'NONE', *, *, #219, .T. ) ;
#193 = CARTESIAN_POINT ( 'NONE',  ( 2.100000000000000089, 2.571758278209441464E-16, 500.0000000000000000 ) ) ;
#194 = ADVANCED_BREP_SHAPE_REPRESENTATION ( '5b1e', ( #206, #85 ), #122 ) ;
#195 = DIRECTION ( 'NONE',  ( 1.000000000000000000, 0.000000000000000000, 0.000000000000000000 ) ) ;
#196 = FACE_OUTER_BOUND ( 'NONE', #114, .T. ) ;
#197 = APPROVAL ( #240, 'NEURÈENÝ' ) ;
#198 = APPROVAL_PERSON_ORGANIZATION ( #11, #197, #66 ) ;
#199 = DIRECTION ( 'NONE',  ( -0.000000000000000000, -0.000000000000000000, -1.000000000000000000 ) ) ;
#200 = APPROVAL_DATE_TIME ( #239, #120 ) ;
#201 = AXIS2_PLACEMENT_3D ( 'NONE', #121, #235, #118 ) ;
#202 = PERSON_AND_ORGANIZATION ( #93, #243 ) ;
#203 = CC_DESIGN_PERSON_AND_ORGANIZATION_ASSIGNMENT ( #105, #48, ( #55 ) ) ;
#204 = COORDINATED_UNIVERSAL_TIME_OFFSET ( 1, 0, .AHEAD. ) ;
#205 = DIRECTION ( 'NONE',  ( -1.000000000000000000, 0.000000000000000000, 0.000000000000000000 ) ) ;
#206 = MANIFOLD_SOLID_BREP ( 'Pøidat vysunutím3', #210 ) ;
#207 = VERTEX_POINT ( 'NONE', #40 ) ;
#208 = DATE_TIME_ROLE ( 'creation_date' ) ;
#209 = ORIENTED_EDGE ( 'NONE', *, *, #183, .T. ) ;
#210 = CLOSED_SHELL ( 'NONE', ( #23, #18, #179, #45, #41, #249, #170 ) ) ;
#211 = EDGE_LOOP ( 'NONE', ( #17, #151 ) ) ;
#212 = EDGE_LOOP ( 'NONE', ( #49, #12, #190, #113 ) ) ;
#213 = DESIGN_CONTEXT ( 'detailed design', #54, 'design' ) ;
#214 = CARTESIAN_POINT ( 'NONE',  ( -2.100000000000000089, 0.000000000000000000, 500.0000000000000000 ) ) ;
#215 = EDGE_CURVE ( 'NONE', #56, #92, #252, .T. ) ;
#216 = DIRECTION ( 'NONE',  ( 1.000000000000000000, 0.000000000000000000, -0.000000000000000000 ) ) ;
#217 = VECTOR ( 'NONE', #199, 1000.000000000000000 ) ;
#218 = CARTESIAN_POINT ( 'NONE',  ( 0.000000000000000000, 0.000000000000000000, 3.000000000000000000 ) ) ;
#219 = EDGE_CURVE ( 'NONE', #250, #169, #176, .T. ) ;
#220 = PLANE ( 'NONE',  #160 ) ;
#221 = APPLICATION_PROTOCOL_DEFINITION ( 'international standard', 'config_control_design', 1994, #54 ) ;
#222 = APPLICATION_PROTOCOL_DEFINITION ( 'international standard', 'config_control_design', 1994, #233 ) ;
#223 = CC_DESIGN_PERSON_AND_ORGANIZATION_ASSIGNMENT ( #186, #13, ( #55 ) ) ;
#224 = CALENDAR_DATE ( 2023, 13, 2 ) ;
#225 = ORIENTED_EDGE ( 'NONE', *, *, #215, .T. ) ;
#226 = COORDINATED_UNIVERSAL_TIME_OFFSET ( 1, 0, .AHEAD. ) ;
#227 = LINE ( 'NONE', #153, #79 ) ;
#228 = SECURITY_CLASSIFICATION ( '', '', #25 ) ;
#229 = APPROVAL ( #130, 'NEURÈENÝ' ) ;
#230 = FACE_OUTER_BOUND ( 'NONE', #247, .T. ) ;
#231 = EDGE_CURVE ( 'NONE', #207, #133, #102, .T. ) ;
#232 = CARTESIAN_POINT ( 'NONE',  ( 0.000000000000000000, 0.000000000000000000, 3.000000000000000000 ) ) ;
#233 = APPLICATION_CONTEXT ( 'configuration controlled 3d designs of mechanical parts and assemblies' ) ;
#234 = LINE ( 'NONE', #142, #180 ) ;
#235 = DIRECTION ( 'NONE',  ( 0.000000000000000000, 0.000000000000000000, 1.000000000000000000 ) ) ;
#236 = DIRECTION ( 'NONE',  ( 0.000000000000000000, 0.000000000000000000, 1.000000000000000000 ) ) ;
#237 = PRODUCT_RELATED_PRODUCT_CATEGORY ( 'detail', '', ( #141 ) ) ;
#238 = CARTESIAN_POINT ( 'NONE',  ( 4.000000000000000000, 4.898587196589412829E-16, 0.000000000000000000 ) ) ;
#239 = DATE_AND_TIME ( #224, #60 ) ;
#240 = APPROVAL_STATUS ( 'not_yet_approved' ) ;
#241 = PRODUCT_DEFINITION_SHAPE ( 'NONE', 'NONE',  #6 ) ;
#242 = DATE_AND_TIME ( #181, #83 ) ;
#243 = ORGANIZATION ( 'NEURÈENÝ', 'NEURÈENÝ', '' ) ;
#244 = DIRECTION ( 'NONE',  ( 1.000000000000000000, 0.000000000000000000, -0.000000000000000000 ) ) ;
#245 = CALENDAR_DATE ( 2023, 13, 2 ) ;
#246 = DIRECTION ( 'NONE',  ( -0.000000000000000000, -0.000000000000000000, -1.000000000000000000 ) ) ;
#247 = EDGE_LOOP ( 'NONE', ( #94, #189, #33, #149 ) ) ;
#248 = ORIENTED_EDGE ( 'NONE', *, *, #159, .F. ) ;
#249 = ADVANCED_FACE ( 'NONE', ( #65 ), #117, .T. ) ;
#250 = VERTEX_POINT ( 'NONE', #214 ) ;
#251 = DIRECTION ( 'NONE',  ( 1.000000000000000000, 0.000000000000000000, -0.000000000000000000 ) ) ;
#252 = CIRCLE ( 'NONE', #201, 4.000000000000000000 ) ;
#253 = DIRECTION ( 'NONE',  ( 1.000000000000000000, 0.000000000000000000, 0.000000000000000000 ) ) ;
#254 = CARTESIAN_POINT ( 'NONE',  ( 0.000000000000000000, 0.000000000000000000, 0.000000000000000000 ) ) ;
#255 = CARTESIAN_POINT ( 'NONE',  ( 0.000000000000000000, 0.000000000000000000, 500.0000000000000000 ) ) ;
ENDSEC;
END-ISO-10303-21;
