ISO-10303-21;
HEADER;
FILE_DESCRIPTION (( 'STEP AP203' ),
    '1' );
FILE_NAME ('2664.STEP',
    '2022-07-07T17:40:51',
    ( '' ),
    ( '' ),
    'SwSTEP 2.0',
    'SolidWorks 2019',
    '' );
FILE_SCHEMA (( 'CONFIG_CONTROL_DESIGN' ));
ENDSEC;

DATA;
#1 = DATE_AND_TIME ( #153, #16 ) ;
#2 = EDGE_CURVE ( 'NONE', #93, #79, #128, .T. ) ;
#3 = ORIENTED_EDGE ( 'NONE', *, *, #174, .F. ) ;
#4 = EDGE_LOOP ( 'NONE', ( #178, #155, #226, #138 ) ) ;
#5 = DATE_TIME_ROLE ( 'creation_date' ) ;
#6 = CARTESIAN_POINT ( 'NONE',  ( 0.000000000000000000, 0.000000000000000000, 0.000000000000000000 ) ) ;
#7 = CARTESIAN_POINT ( 'NONE',  ( 0.000000000000000000, 0.000000000000000000, 0.000000000000000000 ) ) ;
#8 = APPROVAL ( #235, 'NEURÈENÝ' ) ;
#9 = APPROVAL_STATUS ( 'not_yet_approved' ) ;
#10 = CARTESIAN_POINT ( 'NONE',  ( 0.000000000000000000, 0.000000000000000000, 205.0000000000000284 ) ) ;
#11 = DIRECTION ( 'NONE',  ( 0.000000000000000000, 0.000000000000000000, 1.000000000000000000 ) ) ;
#12 = FACE_OUTER_BOUND ( 'NONE', #208, .T. ) ;
#13 = DIRECTION ( 'NONE',  ( 1.000000000000000000, 0.000000000000000000, -0.000000000000000000 ) ) ;
#14 = APPROVAL_DATE_TIME ( #1, #248 ) ;
#15 = SHAPE_DEFINITION_REPRESENTATION ( #225, #104 ) ;
#16 = LOCAL_TIME ( 19, 40, 51.00000000000000000, #198 ) ;
#17 = DATE_AND_TIME ( #172, #234 ) ;
#18 = AXIS2_PLACEMENT_3D ( 'NONE', #7, #215, #250 ) ;
#19 = EDGE_CURVE ( 'NONE', #173, #115, #195, .T. ) ;
#20 = VERTEX_POINT ( 'NONE', #53 ) ;
#21 = PERSON_AND_ORGANIZATION_ROLE ( 'creator' ) ;
#22 = EDGE_LOOP ( 'NONE', ( #25, #245, #94, #180 ) ) ;
#23 = ORIENTED_EDGE ( 'NONE', *, *, #174, .T. ) ;
#24 = CARTESIAN_POINT ( 'NONE',  ( 0.000000000000000000, 0.000000000000000000, 5.000000000000000000 ) ) ;
#25 = ORIENTED_EDGE ( 'NONE', *, *, #49, .F. ) ;
#26 = AXIS2_PLACEMENT_3D ( 'NONE', #46, #84, #147 ) ;
#27 = CARTESIAN_POINT ( 'NONE',  ( -6.000000000000000888, 0.000000000000000000, 0.000000000000000000 ) ) ;
#28 = DIRECTION ( 'NONE',  ( -0.000000000000000000, -0.000000000000000000, -1.000000000000000000 ) ) ;
#29 = CARTESIAN_POINT ( 'NONE',  ( 0.000000000000000000, 0.000000000000000000, 5.000000000000000000 ) ) ;
#30 = DIRECTION ( 'NONE',  ( 0.000000000000000000, 0.000000000000000000, 1.000000000000000000 ) ) ;
#31 = CC_DESIGN_PERSON_AND_ORGANIZATION_ASSIGNMENT ( #241, #21, ( #193 ) ) ;
#32 = CALENDAR_DATE ( 2022, 7, 7 ) ;
#33 = ORIENTED_EDGE ( 'NONE', *, *, #212, .F. ) ;
#34 = PERSON_AND_ORGANIZATION ( #127, #185 ) ;
#35 = DIRECTION ( 'NONE',  ( -0.000000000000000000, -0.000000000000000000, -1.000000000000000000 ) ) ;
#36 = ORIENTED_EDGE ( 'NONE', *, *, #19, .T. ) ;
#37 = ORIENTED_EDGE ( 'NONE', *, *, #103, .F. ) ;
#38 = DIRECTION ( 'NONE',  ( -1.000000000000000000, 0.000000000000000000, 0.000000000000000000 ) ) ;
#39 = CARTESIAN_POINT ( 'NONE',  ( 0.000000000000000000, 0.000000000000000000, 5.000000000000000000 ) ) ;
#40 = CALENDAR_DATE ( 2022, 7, 7 ) ;
#41 = AXIS2_PLACEMENT_3D ( 'NONE', #223, #162, #183 ) ;
#42 = APPROVAL_PERSON_ORGANIZATION ( #78, #248, #50 ) ;
#43 = DIRECTION ( 'NONE',  ( -0.000000000000000000, -0.000000000000000000, -1.000000000000000000 ) ) ;
#44 = ADVANCED_FACE ( 'NONE', ( #136 ), #222, .T. ) ;
#45 = CARTESIAN_POINT ( 'NONE',  ( 6.000000000000000888, 7.347880794884120722E-16, 5.000000000000000000 ) ) ;
#46 = CARTESIAN_POINT ( 'NONE',  ( 0.000000000000000000, 0.000000000000000000, 205.0000000000000284 ) ) ;
#47 = AXIS2_PLACEMENT_3D ( 'NONE', #188, #11, #214 ) ;
#48 = LOCAL_TIME ( 19, 40, 51.00000000000000000, #237 ) ;
#49 = EDGE_CURVE ( 'NONE', #98, #93, #61, .T. ) ;
#50 = APPROVAL_ROLE ( '' ) ;
#51 = CC_DESIGN_DATE_AND_TIME_ASSIGNMENT ( #17, #154, ( #70 ) ) ;
#52 = EDGE_LOOP ( 'NONE', ( #3, #117, #206, #204 ) ) ;
#53 = CARTESIAN_POINT ( 'NONE',  ( 3.000000000000000444, 3.673940397442060361E-16, 5.000000000000000000 ) ) ;
#54 = PERSON_AND_ORGANIZATION ( #127, #185 ) ;
#55 = ADVANCED_FACE ( 'NONE', ( #169 ), #100, .T. ) ;
#56 = EDGE_LOOP ( 'NONE', ( #141, #112 ) ) ;
#57 = DIRECTION ( 'NONE',  ( 0.000000000000000000, 0.000000000000000000, 1.000000000000000000 ) ) ;
#58 = AXIS2_PLACEMENT_3D ( 'NONE', #253, #246, #167 ) ;
#59 = ORIENTED_EDGE ( 'NONE', *, *, #152, .T. ) ;
#60 = DIRECTION ( 'NONE',  ( 1.000000000000000000, 0.000000000000000000, 0.000000000000000000 ) ) ;
#61 = LINE ( 'NONE', #165, #65 ) ;
#62 = DATE_AND_TIME ( #205, #123 ) ;
#63 = EDGE_CURVE ( 'NONE', #242, #98, #230, .T. ) ;
#64 = DIRECTION ( 'NONE',  ( -0.000000000000000000, -0.000000000000000000, -1.000000000000000000 ) ) ;
#65 = VECTOR ( 'NONE', #64, 1000.000000000000000 ) ;
#66 = UNCERTAINTY_MEASURE_WITH_UNIT (LENGTH_MEASURE( 1.000000000000000082E-05 ), #95, 'distance_accuracy_value', 'NONE');
#67 = PLANE ( 'NONE',  #26 ) ;
#68 = CARTESIAN_POINT ( 'NONE',  ( -6.000000000000000888, 0.000000000000000000, 5.000000000000000000 ) ) ;
#69 = AXIS2_PLACEMENT_3D ( 'NONE', #10, #249, #83 ) ;
#70 = SECURITY_CLASSIFICATION ( '', '', #150 ) ;
#71 = PERSON_AND_ORGANIZATION ( #127, #185 ) ;
#72 = DESIGN_CONTEXT ( 'detailed design', #90, 'design' ) ;
#73 = PERSON_AND_ORGANIZATION_ROLE ( 'design_supplier' ) ;
#74 = CC_DESIGN_PERSON_AND_ORGANIZATION_ASSIGNMENT ( #34, #157, ( #134 ) ) ;
#75 = VERTEX_POINT ( 'NONE', #145 ) ;
#76 = DIRECTION ( 'NONE',  ( 0.000000000000000000, 0.000000000000000000, 1.000000000000000000 ) ) ;
#77 = EDGE_LOOP ( 'NONE', ( #156, #182 ) ) ;
#78 = PERSON_AND_ORGANIZATION ( #127, #185 ) ;
#79 = VERTEX_POINT ( 'NONE', #27 ) ;
#80 = DIRECTION ( 'NONE',  ( 0.000000000000000000, 0.000000000000000000, 1.000000000000000000 ) ) ;
#81 = ADVANCED_FACE ( 'NONE', ( #163 ), #191, .F. ) ;
#82 = APPROVAL_ROLE ( '' ) ;
#83 = DIRECTION ( 'NONE',  ( -1.000000000000000000, 0.000000000000000000, 0.000000000000000000 ) ) ;
#84 = DIRECTION ( 'NONE',  ( 0.000000000000000000, 0.000000000000000000, 1.000000000000000000 ) ) ;
#85 = CYLINDRICAL_SURFACE ( 'NONE', #69, 3.000000000000000444 ) ;
#86 = LINE ( 'NONE', #148, #159 ) ;
#87 = AXIS2_PLACEMENT_3D ( 'NONE', #39, #120, #252 ) ;
#88 = PERSON_AND_ORGANIZATION ( #127, #185 ) ;
#89 = CC_DESIGN_APPROVAL ( #248, ( #177 ) ) ;
#90 = APPLICATION_CONTEXT ( 'configuration controlled 3d designs of mechanical parts and assemblies' ) ;
#91 = EDGE_LOOP ( 'NONE', ( #96, #23 ) ) ;
#92 = CIRCLE ( 'NONE', #131, 6.000000000000000888 ) ;
#93 = VERTEX_POINT ( 'NONE', #187 ) ;
#94 = ORIENTED_EDGE ( 'NONE', *, *, #107, .T. ) ;
#95 =( LENGTH_UNIT ( ) NAMED_UNIT ( * ) SI_UNIT ( .MILLI., .METRE. ) );
#96 = ORIENTED_EDGE ( 'NONE', *, *, #63, .T. ) ;
#97 = ADVANCED_FACE ( 'NONE', ( #12 ), #85, .T. ) ;
#98 = VERTEX_POINT ( 'NONE', #45 ) ;
#99 = MECHANICAL_CONTEXT ( 'NONE', #140, 'mechanical' ) ;
#100 = CYLINDRICAL_SURFACE ( 'NONE', #87, 6.000000000000000888 ) ;
#101 = CC_DESIGN_PERSON_AND_ORGANIZATION_ASSIGNMENT ( #71, #73, ( #177 ) ) ;
#102 = DIRECTION ( 'NONE',  ( -0.000000000000000000, -0.000000000000000000, -1.000000000000000000 ) ) ;
#103 = EDGE_CURVE ( 'NONE', #173, #75, #213, .T. ) ;
#104 = ADVANCED_BREP_SHAPE_REPRESENTATION ( '2664', ( #132, #149 ), #106 ) ;
#105 = CARTESIAN_POINT ( 'NONE',  ( -3.000000000000000444, 0.000000000000000000, 205.0000000000000284 ) ) ;
#106 =( GEOMETRIC_REPRESENTATION_CONTEXT ( 3 ) GLOBAL_UNCERTAINTY_ASSIGNED_CONTEXT ( ( #66 ) ) GLOBAL_UNIT_ASSIGNED_CONTEXT ( ( #95, #186, #142 ) ) REPRESENTATION_CONTEXT ( 'NONE', 'WORKASPACE' ) );
#107 = EDGE_CURVE ( 'NONE', #242, #79, #229, .T. ) ;
#108 = FACE_OUTER_BOUND ( 'NONE', #113, .T. ) ;
#109 = APPROVAL_STATUS ( 'not_yet_approved' ) ;
#110 = VECTOR ( 'NONE', #28, 1000.000000000000000 ) ;
#111 = CC_DESIGN_PERSON_AND_ORGANIZATION_ASSIGNMENT ( #192, #151, ( #70 ) ) ;
#112 = ORIENTED_EDGE ( 'NONE', *, *, #152, .F. ) ;
#113 = EDGE_LOOP ( 'NONE', ( #36, #201 ) ) ;
#114 = APPROVAL_PERSON_ORGANIZATION ( #88, #8, #194 ) ;
#115 = VERTEX_POINT ( 'NONE', #125 ) ;
#116 = DIRECTION ( 'NONE',  ( 0.000000000000000000, 0.000000000000000000, 1.000000000000000000 ) ) ;
#117 = ORIENTED_EDGE ( 'NONE', *, *, #49, .T. ) ;
#118 = CARTESIAN_POINT ( 'NONE',  ( 0.000000000000000000, 0.000000000000000000, 0.000000000000000000 ) ) ;
#119 = EDGE_CURVE ( 'NONE', #115, #20, #86, .T. ) ;
#120 = DIRECTION ( 'NONE',  ( -0.000000000000000000, -0.000000000000000000, -1.000000000000000000 ) ) ;
#121 = AXIS2_PLACEMENT_3D ( 'NONE', #243, #57, #139 ) ;
#122 = FACE_OUTER_BOUND ( 'NONE', #22, .T. ) ;
#123 = LOCAL_TIME ( 19, 40, 51.00000000000000000, #137 ) ;
#124 = DIRECTION ( 'NONE',  ( 1.000000000000000000, 0.000000000000000000, 0.000000000000000000 ) ) ;
#125 = CARTESIAN_POINT ( 'NONE',  ( 3.000000000000000444, 3.673940397442060361E-16, 205.0000000000000284 ) ) ;
#126 = CARTESIAN_POINT ( 'NONE',  ( 0.000000000000000000, 0.000000000000000000, 5.000000000000000000 ) ) ;
#127 = PERSON ( 'NEURÈENÝ', 'NEURÈENÝ', 'NEURÈENÝ', ('NEURÈENÝ'), ('NEURÈENÝ'), ('NEURÈENÝ') ) ;
#128 = CIRCLE ( 'NONE', #190, 6.000000000000000888 ) ;
#129 = PERSON_AND_ORGANIZATION ( #127, #185 ) ;
#130 = APPROVAL_DATE_TIME ( #254, #8 ) ;
#131 = AXIS2_PLACEMENT_3D ( 'NONE', #164, #116, #60 ) ;
#132 = MANIFOLD_SOLID_BREP ( 'Pøidat vysunutím3', #211 ) ;
#133 = EDGE_CURVE ( 'NONE', #75, #20, #203, .T. ) ;
#134 = PRODUCT ( '2664', '2664', '', ( #99 ) ) ;
#135 = CARTESIAN_POINT ( 'NONE',  ( 0.000000000000000000, 0.000000000000000000, 205.0000000000000284 ) ) ;
#136 = FACE_OUTER_BOUND ( 'NONE', #4, .T. ) ;
#137 = COORDINATED_UNIVERSAL_TIME_OFFSET ( 1, 0, .AHEAD. ) ;
#138 = ORIENTED_EDGE ( 'NONE', *, *, #133, .T. ) ;
#139 = DIRECTION ( 'NONE',  ( 1.000000000000000000, 0.000000000000000000, 0.000000000000000000 ) ) ;
#140 = APPLICATION_CONTEXT ( 'configuration controlled 3d designs of mechanical parts and assemblies' ) ;
#141 = ORIENTED_EDGE ( 'NONE', *, *, #133, .F. ) ;
#142 =( NAMED_UNIT ( * ) SI_UNIT ( $, .STERADIAN. ) SOLID_ANGLE_UNIT ( ) );
#143 = PLANE ( 'NONE',  #238 ) ;
#144 = DIRECTION ( 'NONE',  ( 0.000000000000000000, 0.000000000000000000, 1.000000000000000000 ) ) ;
#145 = CARTESIAN_POINT ( 'NONE',  ( -3.000000000000000444, 0.000000000000000000, 5.000000000000000000 ) ) ;
#146 = AXIS2_PLACEMENT_3D ( 'NONE', #29, #80, #232 ) ;
#147 = DIRECTION ( 'NONE',  ( 1.000000000000000000, 0.000000000000000000, -0.000000000000000000 ) ) ;
#148 = CARTESIAN_POINT ( 'NONE',  ( 3.000000000000000444, 3.673940397442060361E-16, 205.0000000000000284 ) ) ;
#149 = AXIS2_PLACEMENT_3D ( 'NONE', #118, #144, #247 ) ;
#150 = SECURITY_CLASSIFICATION_LEVEL ( 'unclassified' ) ;
#151 = PERSON_AND_ORGANIZATION_ROLE ( 'classification_officer' ) ;
#152 = EDGE_CURVE ( 'NONE', #20, #75, #217, .T. ) ;
#153 = CALENDAR_DATE ( 2022, 7, 7 ) ;
#154 = DATE_TIME_ROLE ( 'classification_date' ) ;
#155 = ORIENTED_EDGE ( 'NONE', *, *, #19, .F. ) ;
#156 = ORIENTED_EDGE ( 'NONE', *, *, #236, .F. ) ;
#157 = PERSON_AND_ORGANIZATION_ROLE ( 'design_owner' ) ;
#158 = ORIENTED_EDGE ( 'NONE', *, *, #119, .T. ) ;
#159 = VECTOR ( 'NONE', #43, 1000.000000000000000 ) ;
#160 = ADVANCED_FACE ( 'NONE', ( #108 ), #67, .T. ) ;
#161 = DIRECTION ( 'NONE',  ( 0.000000000000000000, 0.000000000000000000, 1.000000000000000000 ) ) ;
#162 = DIRECTION ( 'NONE',  ( 0.000000000000000000, 0.000000000000000000, 1.000000000000000000 ) ) ;
#163 = FACE_OUTER_BOUND ( 'NONE', #77, .T. ) ;
#164 = CARTESIAN_POINT ( 'NONE',  ( 0.000000000000000000, 0.000000000000000000, 0.000000000000000000 ) ) ;
#165 = CARTESIAN_POINT ( 'NONE',  ( 6.000000000000000888, 7.347880794884120722E-16, 5.000000000000000000 ) ) ;
#166 = ADVANCED_FACE ( 'NONE', ( #231, #170 ), #143, .T. ) ;
#167 = DIRECTION ( 'NONE',  ( -1.000000000000000000, 0.000000000000000000, 0.000000000000000000 ) ) ;
#168 = VECTOR ( 'NONE', #102, 1000.000000000000000 ) ;
#169 = FACE_OUTER_BOUND ( 'NONE', #52, .T. ) ;
#170 = FACE_OUTER_BOUND ( 'NONE', #91, .T. ) ;
#171 = AXIS2_PLACEMENT_3D ( 'NONE', #135, #76, #184 ) ;
#172 = CALENDAR_DATE ( 2022, 7, 7 ) ;
#173 = VERTEX_POINT ( 'NONE', #227 ) ;
#174 = EDGE_CURVE ( 'NONE', #98, #242, #239, .T. ) ;
#175 = PRODUCT_RELATED_PRODUCT_CATEGORY ( 'detail', '', ( #134 ) ) ;
#176 = CIRCLE ( 'NONE', #41, 3.000000000000000444 ) ;
#177 = PRODUCT_DEFINITION_FORMATION_WITH_SPECIFIED_SOURCE ( 'LIBOVOLNÝ', '', #134, .NOT_KNOWN. ) ;
#178 = ORIENTED_EDGE ( 'NONE', *, *, #119, .F. ) ;
#179 = DATE_AND_TIME ( #40, #255 ) ;
#180 = ORIENTED_EDGE ( 'NONE', *, *, #236, .T. ) ;
#181 = COORDINATED_UNIVERSAL_TIME_OFFSET ( 1, 0, .AHEAD. ) ;
#182 = ORIENTED_EDGE ( 'NONE', *, *, #2, .F. ) ;
#183 = DIRECTION ( 'NONE',  ( 1.000000000000000000, 0.000000000000000000, 0.000000000000000000 ) ) ;
#184 = DIRECTION ( 'NONE',  ( 1.000000000000000000, 0.000000000000000000, 0.000000000000000000 ) ) ;
#185 = ORGANIZATION ( 'NEURÈENÝ', 'NEURÈENÝ', '' ) ;
#186 =( NAMED_UNIT ( * ) PLANE_ANGLE_UNIT ( ) SI_UNIT ( $, .RADIAN. ) );
#187 = CARTESIAN_POINT ( 'NONE',  ( 6.000000000000000888, 7.347880794884120722E-16, 0.000000000000000000 ) ) ;
#188 = CARTESIAN_POINT ( 'NONE',  ( 0.000000000000000000, 0.000000000000000000, 5.000000000000000000 ) ) ;
#189 = CARTESIAN_POINT ( 'NONE',  ( 0.000000000000000000, 0.000000000000000000, 5.000000000000000000 ) ) ;
#190 = AXIS2_PLACEMENT_3D ( 'NONE', #6, #161, #240 ) ;
#191 = PLANE ( 'NONE',  #18 ) ;
#192 = PERSON_AND_ORGANIZATION ( #127, #185 ) ;
#193 = PRODUCT_DEFINITION ( 'NEZNÁMÝ', '', #177, #72 ) ;
#194 = APPROVAL_ROLE ( '' ) ;
#195 = CIRCLE ( 'NONE', #171, 3.000000000000000444 ) ;
#196 = CC_DESIGN_APPROVAL ( #220, ( #193 ) ) ;
#197 = COORDINATED_UNIVERSAL_TIME_OFFSET ( 1, 0, .AHEAD. ) ;
#198 = COORDINATED_UNIVERSAL_TIME_OFFSET ( 1, 0, .AHEAD. ) ;
#199 = AXIS2_PLACEMENT_3D ( 'NONE', #189, #210, #124 ) ;
#200 = CC_DESIGN_PERSON_AND_ORGANIZATION_ASSIGNMENT ( #129, #233, ( #177 ) ) ;
#201 = ORIENTED_EDGE ( 'NONE', *, *, #212, .T. ) ;
#202 = APPLICATION_PROTOCOL_DEFINITION ( 'international standard', 'config_control_design', 1994, #90 ) ;
#203 = CIRCLE ( 'NONE', #47, 3.000000000000000444 ) ;
#204 = ORIENTED_EDGE ( 'NONE', *, *, #107, .F. ) ;
#205 = CALENDAR_DATE ( 2022, 7, 7 ) ;
#206 = ORIENTED_EDGE ( 'NONE', *, *, #2, .T. ) ;
#207 = CARTESIAN_POINT ( 'NONE',  ( -6.000000000000000888, 0.000000000000000000, 5.000000000000000000 ) ) ;
#208 = EDGE_LOOP ( 'NONE', ( #33, #158, #59, #37 ) ) ;
#209 = APPLICATION_PROTOCOL_DEFINITION ( 'international standard', 'config_control_design', 1994, #140 ) ;
#210 = DIRECTION ( 'NONE',  ( 0.000000000000000000, 0.000000000000000000, 1.000000000000000000 ) ) ;
#211 = CLOSED_SHELL ( 'NONE', ( #97, #55, #216, #166, #81, #44, #160 ) ) ;
#212 = EDGE_CURVE ( 'NONE', #115, #173, #176, .T. ) ;
#213 = LINE ( 'NONE', #105, #110 ) ;
#214 = DIRECTION ( 'NONE',  ( 1.000000000000000000, 0.000000000000000000, 0.000000000000000000 ) ) ;
#215 = DIRECTION ( 'NONE',  ( 0.000000000000000000, 0.000000000000000000, 1.000000000000000000 ) ) ;
#216 = ADVANCED_FACE ( 'NONE', ( #122 ), #224, .T. ) ;
#217 = CIRCLE ( 'NONE', #146, 3.000000000000000444 ) ;
#218 = CC_DESIGN_SECURITY_CLASSIFICATION ( #70, ( #177 ) ) ;
#219 = APPROVAL_PERSON_ORGANIZATION ( #54, #220, #82 ) ;
#220 = APPROVAL ( #9, 'NEURÈENÝ' ) ;
#221 = CC_DESIGN_DATE_AND_TIME_ASSIGNMENT ( #179, #5, ( #193 ) ) ;
#222 = CYLINDRICAL_SURFACE ( 'NONE', #58, 3.000000000000000444 ) ;
#223 = CARTESIAN_POINT ( 'NONE',  ( 0.000000000000000000, 0.000000000000000000, 205.0000000000000284 ) ) ;
#224 = CYLINDRICAL_SURFACE ( 'NONE', #251, 6.000000000000000888 ) ;
#225 = PRODUCT_DEFINITION_SHAPE ( 'NONE', 'NONE',  #193 ) ;
#226 = ORIENTED_EDGE ( 'NONE', *, *, #103, .T. ) ;
#227 = CARTESIAN_POINT ( 'NONE',  ( -3.000000000000000444, 0.000000000000000000, 205.0000000000000284 ) ) ;
#228 = APPROVAL_DATE_TIME ( #62, #220 ) ;
#229 = LINE ( 'NONE', #68, #168 ) ;
#230 = CIRCLE ( 'NONE', #199, 6.000000000000000888 ) ;
#231 = FACE_BOUND ( 'NONE', #56, .T. ) ;
#232 = DIRECTION ( 'NONE',  ( 1.000000000000000000, 0.000000000000000000, 0.000000000000000000 ) ) ;
#233 = PERSON_AND_ORGANIZATION_ROLE ( 'creator' ) ;
#234 = LOCAL_TIME ( 19, 40, 51.00000000000000000, #197 ) ;
#235 = APPROVAL_STATUS ( 'not_yet_approved' ) ;
#236 = EDGE_CURVE ( 'NONE', #79, #93, #92, .T. ) ;
#237 = COORDINATED_UNIVERSAL_TIME_OFFSET ( 1, 0, .AHEAD. ) ;
#238 = AXIS2_PLACEMENT_3D ( 'NONE', #126, #30, #13 ) ;
#239 = CIRCLE ( 'NONE', #121, 6.000000000000000888 ) ;
#240 = DIRECTION ( 'NONE',  ( 1.000000000000000000, 0.000000000000000000, 0.000000000000000000 ) ) ;
#241 = PERSON_AND_ORGANIZATION ( #127, #185 ) ;
#242 = VERTEX_POINT ( 'NONE', #207 ) ;
#243 = CARTESIAN_POINT ( 'NONE',  ( 0.000000000000000000, 0.000000000000000000, 5.000000000000000000 ) ) ;
#244 = CC_DESIGN_APPROVAL ( #8, ( #70 ) ) ;
#245 = ORIENTED_EDGE ( 'NONE', *, *, #63, .F. ) ;
#246 = DIRECTION ( 'NONE',  ( -0.000000000000000000, -0.000000000000000000, -1.000000000000000000 ) ) ;
#247 = DIRECTION ( 'NONE',  ( 1.000000000000000000, 0.000000000000000000, 0.000000000000000000 ) ) ;
#248 = APPROVAL ( #109, 'NEURÈENÝ' ) ;
#249 = DIRECTION ( 'NONE',  ( -0.000000000000000000, -0.000000000000000000, -1.000000000000000000 ) ) ;
#250 = DIRECTION ( 'NONE',  ( 1.000000000000000000, 0.000000000000000000, -0.000000000000000000 ) ) ;
#251 = AXIS2_PLACEMENT_3D ( 'NONE', #24, #35, #38 ) ;
#252 = DIRECTION ( 'NONE',  ( -1.000000000000000000, 0.000000000000000000, 0.000000000000000000 ) ) ;
#253 = CARTESIAN_POINT ( 'NONE',  ( 0.000000000000000000, 0.000000000000000000, 205.0000000000000284 ) ) ;
#254 = DATE_AND_TIME ( #32, #48 ) ;
#255 = LOCAL_TIME ( 19, 40, 51.00000000000000000, #181 ) ;
ENDSEC;
END-ISO-10303-21;
