ISO-10303-21;
HEADER;
FILE_DESCRIPTION (( 'STEP AP203' ),
    '1' );
FILE_NAME ('04f2.STEP',
    '2022-07-07T17:54:33',
    ( '' ),
    ( '' ),
    'SwSTEP 2.0',
    'SolidWorks 2019',
    '' );
FILE_SCHEMA (( 'CONFIG_CONTROL_DESIGN' ));
ENDSEC;

DATA;
#1 = DIRECTION ( 'NONE',  ( 0.000000000000000000, 0.000000000000000000, 1.000000000000000000 ) ) ;
#2 = DIRECTION ( 'NONE',  ( -0.000000000000000000, -0.000000000000000000, -1.000000000000000000 ) ) ;
#3 = ORIENTED_EDGE ( 'NONE', *, *, #79, .T. ) ;
#4 = APPROVAL_DATE_TIME ( #85, #113 ) ;
#5 = EDGE_CURVE ( 'NONE', #229, #70, #137, .T. ) ;
#6 = PERSON_AND_ORGANIZATION_ROLE ( 'design_supplier' ) ;
#7 = APPROVAL_STATUS ( 'not_yet_approved' ) ;
#8 = ORIENTED_EDGE ( 'NONE', *, *, #239, .F. ) ;
#9 = ORIENTED_EDGE ( 'NONE', *, *, #253, .T. ) ;
#10 = ADVANCED_FACE ( 'NONE', ( #251 ), #203, .T. ) ;
#11 = PLANE ( 'NONE',  #34 ) ;
#12 = COORDINATED_UNIVERSAL_TIME_OFFSET ( 1, 0, .AHEAD. ) ;
#13 = EDGE_LOOP ( 'NONE', ( #243, #226, #9, #54 ) ) ;
#14 = ORIENTED_EDGE ( 'NONE', *, *, #253, .F. ) ;
#15 = PRODUCT_DEFINITION ( 'NEZNÁMÝ', '', #118, #166 ) ;
#16 = CC_DESIGN_PERSON_AND_ORGANIZATION_ASSIGNMENT ( #158, #138, ( #30 ) ) ;
#17 = DIRECTION ( 'NONE',  ( -1.000000000000000000, 0.000000000000000000, 0.000000000000000000 ) ) ;
#18 = CARTESIAN_POINT ( 'NONE',  ( 0.000000000000000000, 0.000000000000000000, 0.000000000000000000 ) ) ;
#19 = CYLINDRICAL_SURFACE ( 'NONE', #179, 1.600000000000000089 ) ;
#20 = CIRCLE ( 'NONE', #102, 3.000000000000000444 ) ;
#21 = CARTESIAN_POINT ( 'NONE',  ( 1.600000000000000089, 1.959434878635765230E-16, 3.000000000000000000 ) ) ;
#22 = ORIENTED_EDGE ( 'NONE', *, *, #156, .F. ) ;
#23 = LOCAL_TIME ( 19, 54, 33.00000000000000000, #24 ) ;
#24 = COORDINATED_UNIVERSAL_TIME_OFFSET ( 1, 0, .AHEAD. ) ;
#25 =( NAMED_UNIT ( * ) SI_UNIT ( $, .STERADIAN. ) SOLID_ANGLE_UNIT ( ) );
#26 = ORIENTED_EDGE ( 'NONE', *, *, #33, .T. ) ;
#27 = SECURITY_CLASSIFICATION_LEVEL ( 'unclassified' ) ;
#28 = AXIS2_PLACEMENT_3D ( 'NONE', #80, #61, #232 ) ;
#29 = DIRECTION ( 'NONE',  ( -1.000000000000000000, 0.000000000000000000, 0.000000000000000000 ) ) ;
#30 = SECURITY_CLASSIFICATION ( '', '', #27 ) ;
#31 = EDGE_LOOP ( 'NONE', ( #68, #200 ) ) ;
#32 = ORIENTED_EDGE ( 'NONE', *, *, #109, .T. ) ;
#33 = EDGE_CURVE ( 'NONE', #133, #127, #155, .T. ) ;
#34 = AXIS2_PLACEMENT_3D ( 'NONE', #162, #144, #72 ) ;
#35 = ADVANCED_FACE ( 'NONE', ( #247 ), #91, .T. ) ;
#36 = APPROVAL_PERSON_ORGANIZATION ( #198, #196, #197 ) ;
#37 = DIRECTION ( 'NONE',  ( 1.000000000000000000, 0.000000000000000000, 0.000000000000000000 ) ) ;
#38 = FACE_BOUND ( 'NONE', #164, .T. ) ;
#39 = CARTESIAN_POINT ( 'NONE',  ( 1.600000000000000089, 1.959434878635765230E-16, 403.0000000000000000 ) ) ;
#40 = PRODUCT_RELATED_PRODUCT_CATEGORY ( 'detail', '', ( #240 ) ) ;
#41 = CARTESIAN_POINT ( 'NONE',  ( -1.600000000000000089, 0.000000000000000000, 403.0000000000000000 ) ) ;
#42 = ADVANCED_FACE ( 'NONE', ( #209 ), #11, .F. ) ;
#43 = PERSON_AND_ORGANIZATION_ROLE ( 'creator' ) ;
#44 = PERSON_AND_ORGANIZATION ( #250, #76 ) ;
#45 = CARTESIAN_POINT ( 'NONE',  ( -3.000000000000000444, 0.000000000000000000, 3.000000000000000000 ) ) ;
#46 =( LENGTH_UNIT ( ) NAMED_UNIT ( * ) SI_UNIT ( .MILLI., .METRE. ) );
#47 = ORIENTED_EDGE ( 'NONE', *, *, #206, .T. ) ;
#48 = APPROVAL_DATE_TIME ( #224, #75 ) ;
#49 =( NAMED_UNIT ( * ) PLANE_ANGLE_UNIT ( ) SI_UNIT ( $, .RADIAN. ) );
#50 = VECTOR ( 'NONE', #135, 1000.000000000000000 ) ;
#51 = VERTEX_POINT ( 'NONE', #45 ) ;
#52 = LOCAL_TIME ( 19, 54, 33.00000000000000000, #121 ) ;
#53 = DIRECTION ( 'NONE',  ( 0.000000000000000000, 0.000000000000000000, 1.000000000000000000 ) ) ;
#54 = ORIENTED_EDGE ( 'NONE', *, *, #79, .F. ) ;
#55 = EDGE_CURVE ( 'NONE', #127, #133, #170, .T. ) ;
#56 = DIRECTION ( 'NONE',  ( 0.000000000000000000, 0.000000000000000000, 1.000000000000000000 ) ) ;
#57 = AXIS2_PLACEMENT_3D ( 'NONE', #132, #213, #234 ) ;
#58 = CARTESIAN_POINT ( 'NONE',  ( -3.000000000000000444, 0.000000000000000000, 3.000000000000000000 ) ) ;
#59 = CC_DESIGN_APPROVAL ( #75, ( #30 ) ) ;
#60 = DIRECTION ( 'NONE',  ( 0.000000000000000000, 0.000000000000000000, 1.000000000000000000 ) ) ;
#61 = DIRECTION ( 'NONE',  ( -0.000000000000000000, -0.000000000000000000, -1.000000000000000000 ) ) ;
#62 = EDGE_CURVE ( 'NONE', #229, #133, #255, .T. ) ;
#63 = APPLICATION_CONTEXT ( 'configuration controlled 3d designs of mechanical parts and assemblies' ) ;
#64 = CARTESIAN_POINT ( 'NONE',  ( 0.000000000000000000, 0.000000000000000000, 0.000000000000000000 ) ) ;
#65 = CIRCLE ( 'NONE', #210, 1.600000000000000089 ) ;
#66 = DATE_AND_TIME ( #103, #23 ) ;
#67 = CALENDAR_DATE ( 2022, 7, 7 ) ;
#68 = ORIENTED_EDGE ( 'NONE', *, *, #90, .T. ) ;
#69 = MECHANICAL_CONTEXT ( 'NONE', #63, 'mechanical' ) ;
#70 = VERTEX_POINT ( 'NONE', #168 ) ;
#71 = AXIS2_PLACEMENT_3D ( 'NONE', #78, #56, #37 ) ;
#72 = DIRECTION ( 'NONE',  ( 1.000000000000000000, 0.000000000000000000, -0.000000000000000000 ) ) ;
#73 = DIRECTION ( 'NONE',  ( 0.000000000000000000, 0.000000000000000000, 1.000000000000000000 ) ) ;
#74 = MANIFOLD_SOLID_BREP ( 'Pøidat vysunutím3', #86 ) ;
#75 = APPROVAL ( #142, 'NEURÈENÝ' ) ;
#76 = ORGANIZATION ( 'NEURÈENÝ', 'NEURÈENÝ', '' ) ;
#77 = CARTESIAN_POINT ( 'NONE',  ( 0.000000000000000000, 0.000000000000000000, 3.000000000000000000 ) ) ;
#78 = CARTESIAN_POINT ( 'NONE',  ( 0.000000000000000000, 0.000000000000000000, 0.000000000000000000 ) ) ;
#79 = EDGE_CURVE ( 'NONE', #51, #205, #231, .T. ) ;
#80 = CARTESIAN_POINT ( 'NONE',  ( 0.000000000000000000, 0.000000000000000000, 3.000000000000000000 ) ) ;
#81 = CARTESIAN_POINT ( 'NONE',  ( 3.000000000000000444, 3.673940397442060361E-16, 0.000000000000000000 ) ) ;
#82 = CARTESIAN_POINT ( 'NONE',  ( 0.000000000000000000, 0.000000000000000000, 3.000000000000000000 ) ) ;
#83 = ADVANCED_FACE ( 'NONE', ( #193 ), #130, .T. ) ;
#84 = PERSON_AND_ORGANIZATION ( #250, #76 ) ;
#85 = DATE_AND_TIME ( #67, #194 ) ;
#86 = CLOSED_SHELL ( 'NONE', ( #10, #83, #214, #246, #42, #173, #35 ) ) ;
#87 = COORDINATED_UNIVERSAL_TIME_OFFSET ( 1, 0, .AHEAD. ) ;
#88 = VERTEX_POINT ( 'NONE', #211 ) ;
#89 = VERTEX_POINT ( 'NONE', #81 ) ;
#90 = EDGE_CURVE ( 'NONE', #70, #229, #65, .T. ) ;
#91 = PLANE ( 'NONE',  #107 ) ;
#92 = ORIENTED_EDGE ( 'NONE', *, *, #62, .F. ) ;
#93 = DATE_TIME_ROLE ( 'classification_date' ) ;
#94 = CIRCLE ( 'NONE', #159, 3.000000000000000444 ) ;
#95 = CARTESIAN_POINT ( 'NONE',  ( 1.600000000000000089, 1.959434878635765230E-16, 403.0000000000000000 ) ) ;
#96 = ADVANCED_BREP_SHAPE_REPRESENTATION ( '04f2', ( #74, #131 ), #192 ) ;
#97 = EDGE_CURVE ( 'NONE', #88, #89, #235, .T. ) ;
#98 = DIRECTION ( 'NONE',  ( 0.000000000000000000, 0.000000000000000000, 1.000000000000000000 ) ) ;
#99 = PLANE ( 'NONE',  #186 ) ;
#100 = DIRECTION ( 'NONE',  ( 1.000000000000000000, 0.000000000000000000, 0.000000000000000000 ) ) ;
#101 = EDGE_LOOP ( 'NONE', ( #92, #128, #32, #157 ) ) ;
#102 = AXIS2_PLACEMENT_3D ( 'NONE', #82, #60, #134 ) ;
#103 = CALENDAR_DATE ( 2022, 7, 7 ) ;
#104 = APPROVAL_ROLE ( '' ) ;
#105 = DATE_AND_TIME ( #238, #174 ) ;
#106 = ORIENTED_EDGE ( 'NONE', *, *, #97, .F. ) ;
#107 = AXIS2_PLACEMENT_3D ( 'NONE', #249, #201, #182 ) ;
#108 = CARTESIAN_POINT ( 'NONE',  ( 0.000000000000000000, 0.000000000000000000, 3.000000000000000000 ) ) ;
#109 = EDGE_CURVE ( 'NONE', #70, #127, #216, .T. ) ;
#110 = CARTESIAN_POINT ( 'NONE',  ( 0.000000000000000000, 0.000000000000000000, 403.0000000000000000 ) ) ;
#111 = CARTESIAN_POINT ( 'NONE',  ( 0.000000000000000000, 0.000000000000000000, 403.0000000000000000 ) ) ;
#112 = DIRECTION ( 'NONE',  ( -1.000000000000000000, 0.000000000000000000, 0.000000000000000000 ) ) ;
#113 = APPROVAL ( #119, 'NEURÈENÝ' ) ;
#114 = CARTESIAN_POINT ( 'NONE',  ( 0.000000000000000000, 0.000000000000000000, 3.000000000000000000 ) ) ;
#115 = DIRECTION ( 'NONE',  ( 1.000000000000000000, 0.000000000000000000, 0.000000000000000000 ) ) ;
#116 = CC_DESIGN_PERSON_AND_ORGANIZATION_ASSIGNMENT ( #202, #222, ( #118 ) ) ;
#117 = DIRECTION ( 'NONE',  ( -0.000000000000000000, -0.000000000000000000, -1.000000000000000000 ) ) ;
#118 = PRODUCT_DEFINITION_FORMATION_WITH_SPECIFIED_SOURCE ( 'LIBOVOLNÝ', '', #240, .NOT_KNOWN. ) ;
#119 = APPROVAL_STATUS ( 'not_yet_approved' ) ;
#120 = CC_DESIGN_SECURITY_CLASSIFICATION ( #30, ( #118 ) ) ;
#121 = COORDINATED_UNIVERSAL_TIME_OFFSET ( 1, 0, .AHEAD. ) ;
#122 = PRODUCT_DEFINITION_SHAPE ( 'NONE', 'NONE',  #15 ) ;
#123 = ORIENTED_EDGE ( 'NONE', *, *, #156, .T. ) ;
#124 = DIRECTION ( 'NONE',  ( 1.000000000000000000, 0.000000000000000000, 0.000000000000000000 ) ) ;
#125 = VECTOR ( 'NONE', #151, 1000.000000000000000 ) ;
#126 = EDGE_LOOP ( 'NONE', ( #106, #8, #3, #123 ) ) ;
#127 = VERTEX_POINT ( 'NONE', #187 ) ;
#128 = ORIENTED_EDGE ( 'NONE', *, *, #90, .F. ) ;
#129 = AXIS2_PLACEMENT_3D ( 'NONE', #146, #53, #208 ) ;
#130 = CYLINDRICAL_SURFACE ( 'NONE', #28, 3.000000000000000444 ) ;
#131 = AXIS2_PLACEMENT_3D ( 'NONE', #64, #204, #219 ) ;
#132 = CARTESIAN_POINT ( 'NONE',  ( 0.000000000000000000, 0.000000000000000000, 3.000000000000000000 ) ) ;
#133 = VERTEX_POINT ( 'NONE', #21 ) ;
#134 = DIRECTION ( 'NONE',  ( 1.000000000000000000, 0.000000000000000000, 0.000000000000000000 ) ) ;
#135 = DIRECTION ( 'NONE',  ( -0.000000000000000000, -0.000000000000000000, -1.000000000000000000 ) ) ;
#136 = PERSON_AND_ORGANIZATION_ROLE ( 'design_owner' ) ;
#137 = CIRCLE ( 'NONE', #212, 1.600000000000000089 ) ;
#138 = PERSON_AND_ORGANIZATION_ROLE ( 'classification_officer' ) ;
#139 = CALENDAR_DATE ( 2022, 7, 7 ) ;
#140 = CC_DESIGN_DATE_AND_TIME_ASSIGNMENT ( #199, #93, ( #30 ) ) ;
#141 = EDGE_LOOP ( 'NONE', ( #175, #47 ) ) ;
#142 = APPROVAL_STATUS ( 'not_yet_approved' ) ;
#143 = APPLICATION_PROTOCOL_DEFINITION ( 'international standard', 'config_control_design', 1994, #195 ) ;
#144 = DIRECTION ( 'NONE',  ( 0.000000000000000000, 0.000000000000000000, 1.000000000000000000 ) ) ;
#145 = AXIS2_PLACEMENT_3D ( 'NONE', #108, #73, #147 ) ;
#146 = CARTESIAN_POINT ( 'NONE',  ( 0.000000000000000000, 0.000000000000000000, 3.000000000000000000 ) ) ;
#147 = DIRECTION ( 'NONE',  ( 1.000000000000000000, 0.000000000000000000, 0.000000000000000000 ) ) ;
#148 = AXIS2_PLACEMENT_3D ( 'NONE', #110, #183, #29 ) ;
#149 = CC_DESIGN_PERSON_AND_ORGANIZATION_ASSIGNMENT ( #177, #6, ( #118 ) ) ;
#150 = DIRECTION ( 'NONE',  ( -0.000000000000000000, -0.000000000000000000, -1.000000000000000000 ) ) ;
#151 = DIRECTION ( 'NONE',  ( -0.000000000000000000, -0.000000000000000000, -1.000000000000000000 ) ) ;
#152 = DIRECTION ( 'NONE',  ( 0.000000000000000000, 0.000000000000000000, 1.000000000000000000 ) ) ;
#153 = ORIENTED_EDGE ( 'NONE', *, *, #33, .F. ) ;
#154 = FACE_OUTER_BOUND ( 'NONE', #126, .T. ) ;
#155 = CIRCLE ( 'NONE', #145, 1.600000000000000089 ) ;
#156 = EDGE_CURVE ( 'NONE', #205, #89, #230, .T. ) ;
#157 = ORIENTED_EDGE ( 'NONE', *, *, #55, .T. ) ;
#158 = PERSON_AND_ORGANIZATION ( #250, #76 ) ;
#159 = AXIS2_PLACEMENT_3D ( 'NONE', #18, #98, #115 ) ;
#160 = EDGE_LOOP ( 'NONE', ( #22, #14 ) ) ;
#161 = APPROVAL_ROLE ( '' ) ;
#162 = CARTESIAN_POINT ( 'NONE',  ( 0.000000000000000000, 0.000000000000000000, 0.000000000000000000 ) ) ;
#163 = UNCERTAINTY_MEASURE_WITH_UNIT (LENGTH_MEASURE( 1.000000000000000082E-05 ), #46, 'distance_accuracy_value', 'NONE');
#164 = EDGE_LOOP ( 'NONE', ( #184, #153 ) ) ;
#165 = EDGE_LOOP ( 'NONE', ( #225, #228, #26, #180 ) ) ;
#166 = DESIGN_CONTEXT ( 'detailed design', #195, 'design' ) ;
#167 = LOCAL_TIME ( 19, 54, 33.00000000000000000, #12 ) ;
#168 = CARTESIAN_POINT ( 'NONE',  ( -1.600000000000000089, 0.000000000000000000, 403.0000000000000000 ) ) ;
#169 = FACE_OUTER_BOUND ( 'NONE', #101, .T. ) ;
#170 = CIRCLE ( 'NONE', #129, 1.600000000000000089 ) ;
#171 = DIRECTION ( 'NONE',  ( -0.000000000000000000, -0.000000000000000000, -1.000000000000000000 ) ) ;
#172 = CARTESIAN_POINT ( 'NONE',  ( 3.000000000000000444, 3.673940397442060361E-16, 3.000000000000000000 ) ) ;
#173 = ADVANCED_FACE ( 'NONE', ( #169 ), #19, .T. ) ;
#174 = LOCAL_TIME ( 19, 54, 33.00000000000000000, #87 ) ;
#175 = ORIENTED_EDGE ( 'NONE', *, *, #239, .T. ) ;
#176 = COORDINATED_UNIVERSAL_TIME_OFFSET ( 1, 0, .AHEAD. ) ;
#177 = PERSON_AND_ORGANIZATION ( #250, #76 ) ;
#178 = PERSON_AND_ORGANIZATION ( #250, #76 ) ;
#179 = AXIS2_PLACEMENT_3D ( 'NONE', #233, #2, #112 ) ;
#180 = ORIENTED_EDGE ( 'NONE', *, *, #109, .F. ) ;
#181 = CC_DESIGN_APPROVAL ( #113, ( #118 ) ) ;
#182 = DIRECTION ( 'NONE',  ( 1.000000000000000000, 0.000000000000000000, -0.000000000000000000 ) ) ;
#183 = DIRECTION ( 'NONE',  ( -0.000000000000000000, -0.000000000000000000, -1.000000000000000000 ) ) ;
#184 = ORIENTED_EDGE ( 'NONE', *, *, #55, .F. ) ;
#185 = CC_DESIGN_PERSON_AND_ORGANIZATION_ASSIGNMENT ( #178, #136, ( #240 ) ) ;
#186 = AXIS2_PLACEMENT_3D ( 'NONE', #114, #1, #188 ) ;
#187 = CARTESIAN_POINT ( 'NONE',  ( -1.600000000000000089, 0.000000000000000000, 3.000000000000000000 ) ) ;
#188 = DIRECTION ( 'NONE',  ( 1.000000000000000000, 0.000000000000000000, -0.000000000000000000 ) ) ;
#189 = CC_DESIGN_PERSON_AND_ORGANIZATION_ASSIGNMENT ( #44, #43, ( #15 ) ) ;
#190 = CARTESIAN_POINT ( 'NONE',  ( 0.000000000000000000, 0.000000000000000000, 403.0000000000000000 ) ) ;
#191 = AXIS2_PLACEMENT_3D ( 'NONE', #77, #150, #17 ) ;
#192 =( GEOMETRIC_REPRESENTATION_CONTEXT ( 3 ) GLOBAL_UNCERTAINTY_ASSIGNED_CONTEXT ( ( #163 ) ) GLOBAL_UNIT_ASSIGNED_CONTEXT ( ( #46, #49, #25 ) ) REPRESENTATION_CONTEXT ( 'NONE', 'WORKASPACE' ) );
#193 = FACE_OUTER_BOUND ( 'NONE', #13, .T. ) ;
#194 = LOCAL_TIME ( 19, 54, 33.00000000000000000, #176 ) ;
#195 = APPLICATION_CONTEXT ( 'configuration controlled 3d designs of mechanical parts and assemblies' ) ;
#196 = APPROVAL ( #7, 'NEURÈENÝ' ) ;
#197 = APPROVAL_ROLE ( '' ) ;
#198 = PERSON_AND_ORGANIZATION ( #250, #76 ) ;
#199 = DATE_AND_TIME ( #139, #52 ) ;
#200 = ORIENTED_EDGE ( 'NONE', *, *, #5, .T. ) ;
#201 = DIRECTION ( 'NONE',  ( 0.000000000000000000, 0.000000000000000000, 1.000000000000000000 ) ) ;
#202 = PERSON_AND_ORGANIZATION ( #250, #76 ) ;
#203 = CYLINDRICAL_SURFACE ( 'NONE', #148, 1.600000000000000089 ) ;
#204 = DIRECTION ( 'NONE',  ( 0.000000000000000000, 0.000000000000000000, 1.000000000000000000 ) ) ;
#205 = VERTEX_POINT ( 'NONE', #254 ) ;
#206 = EDGE_CURVE ( 'NONE', #88, #51, #20, .T. ) ;
#207 = CALENDAR_DATE ( 2022, 7, 7 ) ;
#208 = DIRECTION ( 'NONE',  ( 1.000000000000000000, 0.000000000000000000, 0.000000000000000000 ) ) ;
#209 = FACE_OUTER_BOUND ( 'NONE', #160, .T. ) ;
#210 = AXIS2_PLACEMENT_3D ( 'NONE', #190, #152, #100 ) ;
#211 = CARTESIAN_POINT ( 'NONE',  ( 3.000000000000000444, 3.673940397442060361E-16, 3.000000000000000000 ) ) ;
#212 = AXIS2_PLACEMENT_3D ( 'NONE', #111, #223, #124 ) ;
#213 = DIRECTION ( 'NONE',  ( 0.000000000000000000, 0.000000000000000000, 1.000000000000000000 ) ) ;
#214 = ADVANCED_FACE ( 'NONE', ( #154 ), #252, .T. ) ;
#215 = FACE_OUTER_BOUND ( 'NONE', #141, .T. ) ;
#216 = LINE ( 'NONE', #41, #241 ) ;
#217 = CC_DESIGN_APPROVAL ( #196, ( #15 ) ) ;
#218 = APPLICATION_PROTOCOL_DEFINITION ( 'international standard', 'config_control_design', 1994, #63 ) ;
#219 = DIRECTION ( 'NONE',  ( 1.000000000000000000, 0.000000000000000000, 0.000000000000000000 ) ) ;
#220 = CC_DESIGN_DATE_AND_TIME_ASSIGNMENT ( #66, #242, ( #15 ) ) ;
#221 = SHAPE_DEFINITION_REPRESENTATION ( #122, #96 ) ;
#222 = PERSON_AND_ORGANIZATION_ROLE ( 'creator' ) ;
#223 = DIRECTION ( 'NONE',  ( 0.000000000000000000, 0.000000000000000000, 1.000000000000000000 ) ) ;
#224 = DATE_AND_TIME ( #207, #167 ) ;
#225 = ORIENTED_EDGE ( 'NONE', *, *, #5, .F. ) ;
#226 = ORIENTED_EDGE ( 'NONE', *, *, #97, .T. ) ;
#227 = APPROVAL_PERSON_ORGANIZATION ( #84, #113, #104 ) ;
#228 = ORIENTED_EDGE ( 'NONE', *, *, #62, .T. ) ;
#229 = VERTEX_POINT ( 'NONE', #95 ) ;
#230 = CIRCLE ( 'NONE', #71, 3.000000000000000444 ) ;
#231 = LINE ( 'NONE', #58, #125 ) ;
#232 = DIRECTION ( 'NONE',  ( -1.000000000000000000, 0.000000000000000000, 0.000000000000000000 ) ) ;
#233 = CARTESIAN_POINT ( 'NONE',  ( 0.000000000000000000, 0.000000000000000000, 403.0000000000000000 ) ) ;
#234 = DIRECTION ( 'NONE',  ( 1.000000000000000000, 0.000000000000000000, 0.000000000000000000 ) ) ;
#235 = LINE ( 'NONE', #172, #50 ) ;
#236 = CIRCLE ( 'NONE', #57, 3.000000000000000444 ) ;
#237 = APPROVAL_PERSON_ORGANIZATION ( #244, #75, #161 ) ;
#238 = CALENDAR_DATE ( 2022, 7, 7 ) ;
#239 = EDGE_CURVE ( 'NONE', #51, #88, #236, .T. ) ;
#240 = PRODUCT ( '04f2', '04f2', '', ( #69 ) ) ;
#241 = VECTOR ( 'NONE', #171, 1000.000000000000000 ) ;
#242 = DATE_TIME_ROLE ( 'creation_date' ) ;
#243 = ORIENTED_EDGE ( 'NONE', *, *, #206, .F. ) ;
#244 = PERSON_AND_ORGANIZATION ( #250, #76 ) ;
#245 = APPROVAL_DATE_TIME ( #105, #196 ) ;
#246 = ADVANCED_FACE ( 'NONE', ( #38, #215 ), #99, .T. ) ;
#247 = FACE_OUTER_BOUND ( 'NONE', #31, .T. ) ;
#248 = VECTOR ( 'NONE', #117, 1000.000000000000000 ) ;
#249 = CARTESIAN_POINT ( 'NONE',  ( 0.000000000000000000, 0.000000000000000000, 403.0000000000000000 ) ) ;
#250 = PERSON ( 'NEURÈENÝ', 'NEURÈENÝ', 'NEURÈENÝ', ('NEURÈENÝ'), ('NEURÈENÝ'), ('NEURÈENÝ') ) ;
#251 = FACE_OUTER_BOUND ( 'NONE', #165, .T. ) ;
#252 = CYLINDRICAL_SURFACE ( 'NONE', #191, 3.000000000000000444 ) ;
#253 = EDGE_CURVE ( 'NONE', #89, #205, #94, .T. ) ;
#254 = CARTESIAN_POINT ( 'NONE',  ( -3.000000000000000444, 0.000000000000000000, 0.000000000000000000 ) ) ;
#255 = LINE ( 'NONE', #39, #248 ) ;
ENDSEC;
END-ISO-10303-21;
