ISO-10303-21;
HEADER;
FILE_DESCRIPTION (( 'STEP AP203' ),
    '1' );
FILE_NAME ('4c52.STEP',
    '2022-07-07T17:37:09',
    ( '' ),
    ( '' ),
    'SwSTEP 2.0',
    'SolidWorks 2019',
    '' );
FILE_SCHEMA (( 'CONFIG_CONTROL_DESIGN' ));
ENDSEC;

DATA;
#1 = EDGE_LOOP ( 'NONE', ( #117, #236, #120, #181 ) ) ;
#2 = EDGE_CURVE ( 'NONE', #160, #115, #32, .T. ) ;
#3 = VECTOR ( 'NONE', #126, 1000.000000000000000 ) ;
#4 = APPROVAL_DATE_TIME ( #175, #71 ) ;
#5 = VERTEX_POINT ( 'NONE', #119 ) ;
#6 = CALENDAR_DATE ( 2022, 7, 7 ) ;
#7 = FACE_OUTER_BOUND ( 'NONE', #220, .T. ) ;
#8 = EDGE_LOOP ( 'NONE', ( #240, #137, #217, #195 ) ) ;
#9 = DIRECTION ( 'NONE',  ( 1.000000000000000000, 0.000000000000000000, 0.000000000000000000 ) ) ;
#10 = CARTESIAN_POINT ( 'NONE',  ( 0.000000000000000000, 0.000000000000000000, 320.0000000000000000 ) ) ;
#11 = PLANE ( 'NONE',  #228 ) ;
#12 = ADVANCED_FACE ( 'NONE', ( #199 ), #25, .T. ) ;
#13 = DIRECTION ( 'NONE',  ( 0.000000000000000000, 0.000000000000000000, 1.000000000000000000 ) ) ;
#14 = PERSON_AND_ORGANIZATION_ROLE ( 'design_owner' ) ;
#15 = ADVANCED_BREP_SHAPE_REPRESENTATION ( '4c52', ( #234, #69 ), #179 ) ;
#16 = CC_DESIGN_PERSON_AND_ORGANIZATION_ASSIGNMENT ( #18, #40, ( #128 ) ) ;
#17 = CALENDAR_DATE ( 2022, 7, 7 ) ;
#18 = PERSON_AND_ORGANIZATION ( #132, #122 ) ;
#19 = CIRCLE ( 'NONE', #213, 6.000000000000000888 ) ;
#20 = DATE_TIME_ROLE ( 'creation_date' ) ;
#21 = ORIENTED_EDGE ( 'NONE', *, *, #63, .F. ) ;
#22 = CC_DESIGN_APPROVAL ( #35, ( #128 ) ) ;
#23 = ORIENTED_EDGE ( 'NONE', *, *, #244, .T. ) ;
#24 = PERSON_AND_ORGANIZATION ( #132, #122 ) ;
#25 = PLANE ( 'NONE',  #247 ) ;
#26 = APPROVAL_DATE_TIME ( #116, #35 ) ;
#27 = ADVANCED_FACE ( 'NONE', ( #7 ), #85, .T. ) ;
#28 = LOCAL_TIME ( 19, 37, 9.000000000000000000, #36 ) ;
#29 = CARTESIAN_POINT ( 'NONE',  ( 0.000000000000000000, 0.000000000000000000, 5.000000000000000000 ) ) ;
#30 = PRODUCT_DEFINITION_SHAPE ( 'NONE', 'NONE',  #55 ) ;
#31 = DIRECTION ( 'NONE',  ( 1.000000000000000000, 0.000000000000000000, -0.000000000000000000 ) ) ;
#32 = CIRCLE ( 'NONE', #80, 3.250000000000000444 ) ;
#33 = CARTESIAN_POINT ( 'NONE',  ( -6.000000000000000888, 0.000000000000000000, 5.000000000000000000 ) ) ;
#34 = CARTESIAN_POINT ( 'NONE',  ( -3.250000000000000444, 0.000000000000000000, 5.000000000000000000 ) ) ;
#35 = APPROVAL ( #41, 'NEURÈENÝ' ) ;
#36 = COORDINATED_UNIVERSAL_TIME_OFFSET ( 1, 0, .AHEAD. ) ;
#37 = DIRECTION ( 'NONE',  ( 1.000000000000000000, 0.000000000000000000, 0.000000000000000000 ) ) ;
#38 = ADVANCED_FACE ( 'NONE', ( #202 ), #11, .F. ) ;
#39 = CIRCLE ( 'NONE', #151, 3.250000000000000444 ) ;
#40 = PERSON_AND_ORGANIZATION_ROLE ( 'creator' ) ;
#41 = APPROVAL_STATUS ( 'not_yet_approved' ) ;
#42 = ORIENTED_EDGE ( 'NONE', *, *, #2, .F. ) ;
#43 = DATE_TIME_ROLE ( 'classification_date' ) ;
#44 = ORIENTED_EDGE ( 'NONE', *, *, #2, .T. ) ;
#45 = CALENDAR_DATE ( 2022, 7, 7 ) ;
#46 = CARTESIAN_POINT ( 'NONE',  ( 0.000000000000000000, 0.000000000000000000, 0.000000000000000000 ) ) ;
#47 = APPROVAL_PERSON_ORGANIZATION ( #193, #71, #172 ) ;
#48 = FACE_OUTER_BOUND ( 'NONE', #54, .T. ) ;
#49 = CARTESIAN_POINT ( 'NONE',  ( -3.250000000000000444, 0.000000000000000000, 320.0000000000000000 ) ) ;
#50 = CYLINDRICAL_SURFACE ( 'NONE', #222, 3.250000000000000444 ) ;
#51 = CARTESIAN_POINT ( 'NONE',  ( 0.000000000000000000, 0.000000000000000000, 320.0000000000000000 ) ) ;
#52 = APPROVAL_DATE_TIME ( #94, #157 ) ;
#53 = SECURITY_CLASSIFICATION ( '', '', #118 ) ;
#54 = EDGE_LOOP ( 'NONE', ( #198, #176, #242, #103 ) ) ;
#55 = PRODUCT_DEFINITION ( 'NEZNÁMÝ', '', #128, #253 ) ;
#56 = VERTEX_POINT ( 'NONE', #33 ) ;
#57 = PERSON_AND_ORGANIZATION ( #132, #122 ) ;
#58 = CARTESIAN_POINT ( 'NONE',  ( 0.000000000000000000, 0.000000000000000000, 5.000000000000000000 ) ) ;
#59 = ADVANCED_FACE ( 'NONE', ( #48 ), #50, .T. ) ;
#60 = VERTEX_POINT ( 'NONE', #243 ) ;
#61 = DIRECTION ( 'NONE',  ( 1.000000000000000000, 0.000000000000000000, 0.000000000000000000 ) ) ;
#62 = EDGE_CURVE ( 'NONE', #223, #5, #39, .T. ) ;
#63 = EDGE_CURVE ( 'NONE', #115, #160, #205, .T. ) ;
#64 = DIRECTION ( 'NONE',  ( -1.000000000000000000, 0.000000000000000000, 0.000000000000000000 ) ) ;
#65 = VECTOR ( 'NONE', #182, 1000.000000000000000 ) ;
#66 = CARTESIAN_POINT ( 'NONE',  ( 0.000000000000000000, 0.000000000000000000, 5.000000000000000000 ) ) ;
#67 = CARTESIAN_POINT ( 'NONE',  ( 0.000000000000000000, 0.000000000000000000, 0.000000000000000000 ) ) ;
#68 = EDGE_CURVE ( 'NONE', #223, #160, #162, .T. ) ;
#69 = AXIS2_PLACEMENT_3D ( 'NONE', #111, #112, #232 ) ;
#70 = DIRECTION ( 'NONE',  ( -1.000000000000000000, 0.000000000000000000, 0.000000000000000000 ) ) ;
#71 = APPROVAL ( #180, 'NEURÈENÝ' ) ;
#72 = DIRECTION ( 'NONE',  ( 0.000000000000000000, 0.000000000000000000, 1.000000000000000000 ) ) ;
#73 = CC_DESIGN_DATE_AND_TIME_ASSIGNMENT ( #76, #20, ( #55 ) ) ;
#74 = APPLICATION_CONTEXT ( 'configuration controlled 3d designs of mechanical parts and assemblies' ) ;
#75 = EDGE_CURVE ( 'NONE', #5, #115, #207, .T. ) ;
#76 = DATE_AND_TIME ( #78, #203 ) ;
#77 = ORIENTED_EDGE ( 'NONE', *, *, #62, .F. ) ;
#78 = CALENDAR_DATE ( 2022, 7, 7 ) ;
#79 = CARTESIAN_POINT ( 'NONE',  ( 0.000000000000000000, 0.000000000000000000, 320.0000000000000000 ) ) ;
#80 = AXIS2_PLACEMENT_3D ( 'NONE', #58, #86, #173 ) ;
#81 = APPLICATION_CONTEXT ( 'configuration controlled 3d designs of mechanical parts and assemblies' ) ;
#82 = CALENDAR_DATE ( 2022, 7, 7 ) ;
#83 = EDGE_LOOP ( 'NONE', ( #139, #237 ) ) ;
#84 = PERSON_AND_ORGANIZATION ( #132, #122 ) ;
#85 = CYLINDRICAL_SURFACE ( 'NONE', #155, 3.250000000000000444 ) ;
#86 = DIRECTION ( 'NONE',  ( 0.000000000000000000, 0.000000000000000000, 1.000000000000000000 ) ) ;
#87 = FACE_BOUND ( 'NONE', #101, .T. ) ;
#88 = DIRECTION ( 'NONE',  ( 0.000000000000000000, 0.000000000000000000, 1.000000000000000000 ) ) ;
#89 = CC_DESIGN_SECURITY_CLASSIFICATION ( #53, ( #128 ) ) ;
#90 = CARTESIAN_POINT ( 'NONE',  ( 3.250000000000000444, 3.980102097228898231E-16, 5.000000000000000000 ) ) ;
#91 = CARTESIAN_POINT ( 'NONE',  ( 0.000000000000000000, 0.000000000000000000, 5.000000000000000000 ) ) ;
#92 = PRODUCT_RELATED_PRODUCT_CATEGORY ( 'detail', '', ( #174 ) ) ;
#93 = DIRECTION ( 'NONE',  ( -0.000000000000000000, -0.000000000000000000, -1.000000000000000000 ) ) ;
#94 = DATE_AND_TIME ( #17, #28 ) ;
#95 = EDGE_CURVE ( 'NONE', #56, #158, #164, .T. ) ;
#96 = LOCAL_TIME ( 19, 37, 9.000000000000000000, #135 ) ;
#97 = CARTESIAN_POINT ( 'NONE',  ( 0.000000000000000000, 0.000000000000000000, 5.000000000000000000 ) ) ;
#98 = COORDINATED_UNIVERSAL_TIME_OFFSET ( 1, 0, .AHEAD. ) ;
#99 = AXIS2_PLACEMENT_3D ( 'NONE', #97, #252, #70 ) ;
#100 = EDGE_LOOP ( 'NONE', ( #136, #161 ) ) ;
#101 = EDGE_LOOP ( 'NONE', ( #21, #42 ) ) ;
#102 = DIRECTION ( 'NONE',  ( 0.000000000000000000, 0.000000000000000000, 1.000000000000000000 ) ) ;
#103 = ORIENTED_EDGE ( 'NONE', *, *, #63, .T. ) ;
#104 = CIRCLE ( 'NONE', #226, 6.000000000000000888 ) ;
#105 = DIRECTION ( 'NONE',  ( -0.000000000000000000, -0.000000000000000000, -1.000000000000000000 ) ) ;
#106 = CIRCLE ( 'NONE', #211, 6.000000000000000888 ) ;
#107 = CARTESIAN_POINT ( 'NONE',  ( -6.000000000000000888, 0.000000000000000000, 0.000000000000000000 ) ) ;
#108 = EDGE_CURVE ( 'NONE', #60, #56, #106, .T. ) ;
#109 = DIRECTION ( 'NONE',  ( 0.000000000000000000, 0.000000000000000000, 1.000000000000000000 ) ) ;
#110 = CARTESIAN_POINT ( 'NONE',  ( 0.000000000000000000, 0.000000000000000000, 320.0000000000000000 ) ) ;
#111 = CARTESIAN_POINT ( 'NONE',  ( 0.000000000000000000, 0.000000000000000000, 0.000000000000000000 ) ) ;
#112 = DIRECTION ( 'NONE',  ( 0.000000000000000000, 0.000000000000000000, 1.000000000000000000 ) ) ;
#113 = APPLICATION_PROTOCOL_DEFINITION ( 'international standard', 'config_control_design', 1994, #81 ) ;
#114 = CIRCLE ( 'NONE', #190, 6.000000000000000888 ) ;
#115 = VERTEX_POINT ( 'NONE', #34 ) ;
#116 = DATE_AND_TIME ( #82, #166 ) ;
#117 = ORIENTED_EDGE ( 'NONE', *, *, #108, .F. ) ;
#118 = SECURITY_CLASSIFICATION_LEVEL ( 'unclassified' ) ;
#119 = CARTESIAN_POINT ( 'NONE',  ( -3.250000000000000444, 0.000000000000000000, 320.0000000000000000 ) ) ;
#120 = ORIENTED_EDGE ( 'NONE', *, *, #167, .T. ) ;
#121 = CYLINDRICAL_SURFACE ( 'NONE', #130, 6.000000000000000888 ) ;
#122 = ORGANIZATION ( 'NEURÈENÝ', 'NEURÈENÝ', '' ) ;
#123 = DIRECTION ( 'NONE',  ( -0.000000000000000000, -0.000000000000000000, -1.000000000000000000 ) ) ;
#124 = DIRECTION ( 'NONE',  ( 0.000000000000000000, 0.000000000000000000, 1.000000000000000000 ) ) ;
#125 = CARTESIAN_POINT ( 'NONE',  ( 3.250000000000000444, 3.980102097228898231E-16, 320.0000000000000000 ) ) ;
#126 = DIRECTION ( 'NONE',  ( -0.000000000000000000, -0.000000000000000000, -1.000000000000000000 ) ) ;
#127 = CARTESIAN_POINT ( 'NONE',  ( 6.000000000000000888, 7.347880794884120722E-16, 5.000000000000000000 ) ) ;
#128 = PRODUCT_DEFINITION_FORMATION_WITH_SPECIFIED_SOURCE ( 'LIBOVOLNÝ', '', #174, .NOT_KNOWN. ) ;
#129 = FACE_OUTER_BOUND ( 'NONE', #1, .T. ) ;
#130 = AXIS2_PLACEMENT_3D ( 'NONE', #29, #105, #64 ) ;
#131 = CC_DESIGN_PERSON_AND_ORGANIZATION_ASSIGNMENT ( #197, #238, ( #128 ) ) ;
#132 = PERSON ( 'NEURÈENÝ', 'NEURÈENÝ', 'NEURÈENÝ', ('NEURÈENÝ'), ('NEURÈENÝ'), ('NEURÈENÝ') ) ;
#133 = APPROVAL_ROLE ( '' ) ;
#134 = ORIENTED_EDGE ( 'NONE', *, *, #108, .T. ) ;
#135 = COORDINATED_UNIVERSAL_TIME_OFFSET ( 1, 0, .AHEAD. ) ;
#136 = ORIENTED_EDGE ( 'NONE', *, *, #183, .F. ) ;
#137 = ORIENTED_EDGE ( 'NONE', *, *, #244, .F. ) ;
#138 = COORDINATED_UNIVERSAL_TIME_OFFSET ( 1, 0, .AHEAD. ) ;
#139 = ORIENTED_EDGE ( 'NONE', *, *, #142, .T. ) ;
#140 = VECTOR ( 'NONE', #230, 1000.000000000000000 ) ;
#141 = CARTESIAN_POINT ( 'NONE',  ( 0.000000000000000000, 0.000000000000000000, 0.000000000000000000 ) ) ;
#142 = EDGE_CURVE ( 'NONE', #5, #223, #248, .T. ) ;
#143 = DIRECTION ( 'NONE',  ( 1.000000000000000000, 0.000000000000000000, 0.000000000000000000 ) ) ;
#144 = ADVANCED_FACE ( 'NONE', ( #87, #206 ), #225, .T. ) ;
#145 = CC_DESIGN_APPROVAL ( #71, ( #53 ) ) ;
#146 = DIRECTION ( 'NONE',  ( -1.000000000000000000, 0.000000000000000000, 0.000000000000000000 ) ) ;
#147 = DIRECTION ( 'NONE',  ( -0.000000000000000000, -0.000000000000000000, -1.000000000000000000 ) ) ;
#148 = CARTESIAN_POINT ( 'NONE',  ( 0.000000000000000000, 0.000000000000000000, 5.000000000000000000 ) ) ;
#149 = CARTESIAN_POINT ( 'NONE',  ( 0.000000000000000000, 0.000000000000000000, 5.000000000000000000 ) ) ;
#150 = APPROVAL_STATUS ( 'not_yet_approved' ) ;
#151 = AXIS2_PLACEMENT_3D ( 'NONE', #245, #88, #9 ) ;
#152 = AXIS2_PLACEMENT_3D ( 'NONE', #110, #124, #249 ) ;
#153 = UNCERTAINTY_MEASURE_WITH_UNIT (LENGTH_MEASURE( 1.000000000000000082E-05 ), #233, 'distance_accuracy_value', 'NONE');
#154 = VECTOR ( 'NONE', #93, 1000.000000000000000 ) ;
#155 = AXIS2_PLACEMENT_3D ( 'NONE', #10, #147, #146 ) ;
#156 = EDGE_LOOP ( 'NONE', ( #23, #134 ) ) ;
#157 = APPROVAL ( #150, 'NEURÈENÝ' ) ;
#158 = VERTEX_POINT ( 'NONE', #107 ) ;
#159 = SHAPE_DEFINITION_REPRESENTATION ( #30, #15 ) ;
#160 = VERTEX_POINT ( 'NONE', #90 ) ;
#161 = ORIENTED_EDGE ( 'NONE', *, *, #167, .F. ) ;
#162 = LINE ( 'NONE', #125, #140 ) ;
#163 = DIRECTION ( 'NONE',  ( 1.000000000000000000, 0.000000000000000000, 0.000000000000000000 ) ) ;
#164 = LINE ( 'NONE', #184, #65 ) ;
#165 = APPLICATION_PROTOCOL_DEFINITION ( 'international standard', 'config_control_design', 1994, #74 ) ;
#166 = LOCAL_TIME ( 19, 37, 9.000000000000000000, #138 ) ;
#167 = EDGE_CURVE ( 'NONE', #216, #158, #104, .T. ) ;
#168 = CARTESIAN_POINT ( 'NONE',  ( 6.000000000000000888, 7.347880794884120722E-16, 0.000000000000000000 ) ) ;
#169 = DATE_AND_TIME ( #45, #96 ) ;
#170 = AXIS2_PLACEMENT_3D ( 'NONE', #66, #109, #31 ) ;
#171 = ADVANCED_FACE ( 'NONE', ( #246 ), #121, .T. ) ;
#172 = APPROVAL_ROLE ( '' ) ;
#173 = DIRECTION ( 'NONE',  ( 1.000000000000000000, 0.000000000000000000, 0.000000000000000000 ) ) ;
#174 = PRODUCT ( '4c52', '4c52', '', ( #192 ) ) ;
#175 = DATE_AND_TIME ( #6, #208 ) ;
#176 = ORIENTED_EDGE ( 'NONE', *, *, #142, .F. ) ;
#177 = PERSON_AND_ORGANIZATION_ROLE ( 'creator' ) ;
#178 = DIRECTION ( 'NONE',  ( 1.000000000000000000, 0.000000000000000000, -0.000000000000000000 ) ) ;
#179 =( GEOMETRIC_REPRESENTATION_CONTEXT ( 3 ) GLOBAL_UNCERTAINTY_ASSIGNED_CONTEXT ( ( #153 ) ) GLOBAL_UNIT_ASSIGNED_CONTEXT ( ( #233, #214, #254 ) ) REPRESENTATION_CONTEXT ( 'NONE', 'WORKASPACE' ) );
#180 = APPROVAL_STATUS ( 'not_yet_approved' ) ;
#181 = ORIENTED_EDGE ( 'NONE', *, *, #95, .F. ) ;
#182 = DIRECTION ( 'NONE',  ( -0.000000000000000000, -0.000000000000000000, -1.000000000000000000 ) ) ;
#183 = EDGE_CURVE ( 'NONE', #158, #216, #19, .T. ) ;
#184 = CARTESIAN_POINT ( 'NONE',  ( -6.000000000000000888, 0.000000000000000000, 5.000000000000000000 ) ) ;
#185 = APPROVAL_PERSON_ORGANIZATION ( #84, #35, #133 ) ;
#186 = DIRECTION ( 'NONE',  ( 1.000000000000000000, 0.000000000000000000, -0.000000000000000000 ) ) ;
#187 = CC_DESIGN_PERSON_AND_ORGANIZATION_ASSIGNMENT ( #24, #177, ( #55 ) ) ;
#188 = PERSON_AND_ORGANIZATION ( #132, #122 ) ;
#189 = PERSON_AND_ORGANIZATION ( #132, #122 ) ;
#190 = AXIS2_PLACEMENT_3D ( 'NONE', #149, #215, #37 ) ;
#191 = CC_DESIGN_DATE_AND_TIME_ASSIGNMENT ( #169, #43, ( #53 ) ) ;
#192 = MECHANICAL_CONTEXT ( 'NONE', #81, 'mechanical' ) ;
#193 = PERSON_AND_ORGANIZATION ( #132, #122 ) ;
#194 = CLOSED_SHELL ( 'NONE', ( #27, #221, #171, #144, #38, #59, #12 ) ) ;
#195 = ORIENTED_EDGE ( 'NONE', *, *, #183, .T. ) ;
#196 = CC_DESIGN_APPROVAL ( #157, ( #55 ) ) ;
#197 = PERSON_AND_ORGANIZATION ( #132, #122 ) ;
#198 = ORIENTED_EDGE ( 'NONE', *, *, #68, .F. ) ;
#199 = FACE_OUTER_BOUND ( 'NONE', #83, .T. ) ;
#200 = COORDINATED_UNIVERSAL_TIME_OFFSET ( 1, 0, .AHEAD. ) ;
#201 = ORIENTED_EDGE ( 'NONE', *, *, #75, .F. ) ;
#202 = FACE_OUTER_BOUND ( 'NONE', #100, .T. ) ;
#203 = LOCAL_TIME ( 19, 37, 9.000000000000000000, #200 ) ;
#204 = DIRECTION ( 'NONE',  ( 0.000000000000000000, 0.000000000000000000, 1.000000000000000000 ) ) ;
#205 = CIRCLE ( 'NONE', #255, 3.250000000000000444 ) ;
#206 = FACE_OUTER_BOUND ( 'NONE', #156, .T. ) ;
#207 = LINE ( 'NONE', #49, #3 ) ;
#208 = LOCAL_TIME ( 19, 37, 9.000000000000000000, #98 ) ;
#209 = CARTESIAN_POINT ( 'NONE',  ( 3.250000000000000444, 3.980102097228898231E-16, 320.0000000000000000 ) ) ;
#210 = EDGE_CURVE ( 'NONE', #60, #216, #231, .T. ) ;
#211 = AXIS2_PLACEMENT_3D ( 'NONE', #148, #204, #143 ) ;
#212 = DIRECTION ( 'NONE',  ( 1.000000000000000000, 0.000000000000000000, 0.000000000000000000 ) ) ;
#213 = AXIS2_PLACEMENT_3D ( 'NONE', #67, #72, #212 ) ;
#214 =( NAMED_UNIT ( * ) PLANE_ANGLE_UNIT ( ) SI_UNIT ( $, .RADIAN. ) );
#215 = DIRECTION ( 'NONE',  ( 0.000000000000000000, 0.000000000000000000, 1.000000000000000000 ) ) ;
#216 = VERTEX_POINT ( 'NONE', #168 ) ;
#217 = ORIENTED_EDGE ( 'NONE', *, *, #95, .T. ) ;
#218 = APPROVAL_PERSON_ORGANIZATION ( #189, #157, #250 ) ;
#219 = PERSON_AND_ORGANIZATION_ROLE ( 'classification_officer' ) ;
#220 = EDGE_LOOP ( 'NONE', ( #77, #239, #44, #201 ) ) ;
#221 = ADVANCED_FACE ( 'NONE', ( #129 ), #251, .T. ) ;
#222 = AXIS2_PLACEMENT_3D ( 'NONE', #51, #123, #227 ) ;
#223 = VERTEX_POINT ( 'NONE', #209 ) ;
#224 = DIRECTION ( 'NONE',  ( 0.000000000000000000, 0.000000000000000000, 1.000000000000000000 ) ) ;
#225 = PLANE ( 'NONE',  #170 ) ;
#226 = AXIS2_PLACEMENT_3D ( 'NONE', #141, #224, #163 ) ;
#227 = DIRECTION ( 'NONE',  ( -1.000000000000000000, 0.000000000000000000, 0.000000000000000000 ) ) ;
#228 = AXIS2_PLACEMENT_3D ( 'NONE', #46, #13, #186 ) ;
#229 = DIRECTION ( 'NONE',  ( 0.000000000000000000, 0.000000000000000000, 1.000000000000000000 ) ) ;
#230 = DIRECTION ( 'NONE',  ( -0.000000000000000000, -0.000000000000000000, -1.000000000000000000 ) ) ;
#231 = LINE ( 'NONE', #127, #154 ) ;
#232 = DIRECTION ( 'NONE',  ( 1.000000000000000000, 0.000000000000000000, 0.000000000000000000 ) ) ;
#233 =( LENGTH_UNIT ( ) NAMED_UNIT ( * ) SI_UNIT ( .MILLI., .METRE. ) );
#234 = MANIFOLD_SOLID_BREP ( 'Pøidat vysunutím3', #194 ) ;
#235 = CC_DESIGN_PERSON_AND_ORGANIZATION_ASSIGNMENT ( #57, #219, ( #53 ) ) ;
#236 = ORIENTED_EDGE ( 'NONE', *, *, #210, .T. ) ;
#237 = ORIENTED_EDGE ( 'NONE', *, *, #62, .T. ) ;
#238 = PERSON_AND_ORGANIZATION_ROLE ( 'design_supplier' ) ;
#239 = ORIENTED_EDGE ( 'NONE', *, *, #68, .T. ) ;
#240 = ORIENTED_EDGE ( 'NONE', *, *, #210, .F. ) ;
#241 = CC_DESIGN_PERSON_AND_ORGANIZATION_ASSIGNMENT ( #188, #14, ( #174 ) ) ;
#242 = ORIENTED_EDGE ( 'NONE', *, *, #75, .T. ) ;
#243 = CARTESIAN_POINT ( 'NONE',  ( 6.000000000000000888, 7.347880794884120722E-16, 5.000000000000000000 ) ) ;
#244 = EDGE_CURVE ( 'NONE', #56, #60, #114, .T. ) ;
#245 = CARTESIAN_POINT ( 'NONE',  ( 0.000000000000000000, 0.000000000000000000, 320.0000000000000000 ) ) ;
#246 = FACE_OUTER_BOUND ( 'NONE', #8, .T. ) ;
#247 = AXIS2_PLACEMENT_3D ( 'NONE', #79, #102, #178 ) ;
#248 = CIRCLE ( 'NONE', #152, 3.250000000000000444 ) ;
#249 = DIRECTION ( 'NONE',  ( 1.000000000000000000, 0.000000000000000000, 0.000000000000000000 ) ) ;
#250 = APPROVAL_ROLE ( '' ) ;
#251 = CYLINDRICAL_SURFACE ( 'NONE', #99, 6.000000000000000888 ) ;
#252 = DIRECTION ( 'NONE',  ( -0.000000000000000000, -0.000000000000000000, -1.000000000000000000 ) ) ;
#253 = DESIGN_CONTEXT ( 'detailed design', #74, 'design' ) ;
#254 =( NAMED_UNIT ( * ) SI_UNIT ( $, .STERADIAN. ) SOLID_ANGLE_UNIT ( ) );
#255 = AXIS2_PLACEMENT_3D ( 'NONE', #91, #229, #61 ) ;
ENDSEC;
END-ISO-10303-21;
