ISO-10303-21;
HEADER;
FILE_DESCRIPTION (( 'STEP AP203' ),
    '1' );
FILE_NAME ('1d8f.STEP',
    '2022-07-07T17:08:18',
    ( '' ),
    ( '' ),
    'SwSTEP 2.0',
    'SolidWorks 2019',
    '' );
FILE_SCHEMA (( 'CONFIG_CONTROL_DESIGN' ));
ENDSEC;

DATA;
#1 = DIRECTION ( 'NONE',  ( -1.000000000000000000, 0.000000000000000000, 0.000000000000000000 ) ) ;
#2 = ORIENTED_EDGE ( 'NONE', *, *, #69, .T. ) ;
#3 = EDGE_LOOP ( 'NONE', ( #205, #245 ) ) ;
#4 = DIRECTION ( 'NONE',  ( -0.000000000000000000, -0.000000000000000000, -1.000000000000000000 ) ) ;
#5 = AXIS2_PLACEMENT_3D ( 'NONE', #215, #166, #164 ) ;
#6 = ORIENTED_EDGE ( 'NONE', *, *, #29, .F. ) ;
#7 = CARTESIAN_POINT ( 'NONE',  ( 0.000000000000000000, 0.000000000000000000, 7.000000000000000000 ) ) ;
#8 = ORIENTED_EDGE ( 'NONE', *, *, #238, .F. ) ;
#9 = CARTESIAN_POINT ( 'NONE',  ( 0.000000000000000000, 0.000000000000000000, 7.000000000000000000 ) ) ;
#10 = CARTESIAN_POINT ( 'NONE',  ( 0.000000000000000000, 0.000000000000000000, 107.0000000000000142 ) ) ;
#11 = EDGE_LOOP ( 'NONE', ( #216, #235 ) ) ;
#12 = CYLINDRICAL_SURFACE ( 'NONE', #123, 8.000000000000000000 ) ;
#13 = PERSON_AND_ORGANIZATION ( #230, #199 ) ;
#14 = VECTOR ( 'NONE', #65, 1000.000000000000000 ) ;
#15 = ADVANCED_FACE ( 'NONE', ( #170 ), #12, .T. ) ;
#16 = PERSON_AND_ORGANIZATION_ROLE ( 'creator' ) ;
#17 = PERSON_AND_ORGANIZATION_ROLE ( 'design_owner' ) ;
#18 = PRODUCT_DEFINITION ( 'NEZNÁMÝ', '', #119, #71 ) ;
#19 = DATE_AND_TIME ( #250, #220 ) ;
#20 = EDGE_LOOP ( 'NONE', ( #200, #81 ) ) ;
#21 = EDGE_CURVE ( 'NONE', #172, #108, #249, .T. ) ;
#22 = DIRECTION ( 'NONE',  ( -0.000000000000000000, -0.000000000000000000, -1.000000000000000000 ) ) ;
#23 = CIRCLE ( 'NONE', #253, 8.000000000000000000 ) ;
#24 = VECTOR ( 'NONE', #22, 1000.000000000000000 ) ;
#25 = CARTESIAN_POINT ( 'NONE',  ( 0.000000000000000000, 0.000000000000000000, 0.000000000000000000 ) ) ;
#26 = CARTESIAN_POINT ( 'NONE',  ( -8.000000000000000000, 0.000000000000000000, 107.0000000000000142 ) ) ;
#27 = DIRECTION ( 'NONE',  ( 0.000000000000000000, 0.000000000000000000, 1.000000000000000000 ) ) ;
#28 = CARTESIAN_POINT ( 'NONE',  ( 0.000000000000000000, 0.000000000000000000, 7.000000000000000000 ) ) ;
#29 = EDGE_CURVE ( 'NONE', #172, #241, #236, .T. ) ;
#30 = CARTESIAN_POINT ( 'NONE',  ( 11.00000000000000000, 1.347111479062088405E-15, 0.000000000000000000 ) ) ;
#31 = PRODUCT ( '1d8f', '1d8f', '', ( #131 ) ) ;
#32 = PERSON_AND_ORGANIZATION_ROLE ( 'creator' ) ;
#33 = CALENDAR_DATE ( 2022, 7, 7 ) ;
#34 = VECTOR ( 'NONE', #66, 1000.000000000000000 ) ;
#35 = ADVANCED_FACE ( 'NONE', ( #150 ), #173, .T. ) ;
#36 = MANIFOLD_SOLID_BREP ( 'Pøidat vysunutím3', #193 ) ;
#37 = APPLICATION_CONTEXT ( 'configuration controlled 3d designs of mechanical parts and assemblies' ) ;
#38 = VERTEX_POINT ( 'NONE', #201 ) ;
#39 = DIRECTION ( 'NONE',  ( 1.000000000000000000, 0.000000000000000000, -0.000000000000000000 ) ) ;
#40 = ORIENTED_EDGE ( 'NONE', *, *, #115, .T. ) ;
#41 = FACE_BOUND ( 'NONE', #11, .T. ) ;
#42 = EDGE_LOOP ( 'NONE', ( #222, #85 ) ) ;
#43 = FACE_OUTER_BOUND ( 'NONE', #3, .T. ) ;
#44 = EDGE_LOOP ( 'NONE', ( #155, #194, #147, #8 ) ) ;
#45 = CARTESIAN_POINT ( 'NONE',  ( -11.00000000000000000, 0.000000000000000000, 7.000000000000000000 ) ) ;
#46 = CC_DESIGN_PERSON_AND_ORGANIZATION_ASSIGNMENT ( #142, #16, ( #18 ) ) ;
#47 = CARTESIAN_POINT ( 'NONE',  ( 0.000000000000000000, 0.000000000000000000, 107.0000000000000142 ) ) ;
#48 = LOCAL_TIME ( 19, 8, 18.00000000000000000, #192 ) ;
#49 = ADVANCED_FACE ( 'NONE', ( #206 ), #247, .T. ) ;
#50 = APPROVAL_ROLE ( '' ) ;
#51 = DATE_AND_TIME ( #255, #82 ) ;
#52 = AXIS2_PLACEMENT_3D ( 'NONE', #221, #176, #197 ) ;
#53 = DATE_TIME_ROLE ( 'classification_date' ) ;
#54 = COORDINATED_UNIVERSAL_TIME_OFFSET ( 1, 0, .AHEAD. ) ;
#55 = EDGE_CURVE ( 'NONE', #196, #89, #232, .T. ) ;
#56 = CARTESIAN_POINT ( 'NONE',  ( -8.000000000000000000, 0.000000000000000000, 7.000000000000000000 ) ) ;
#57 = ADVANCED_FACE ( 'NONE', ( #41, #43 ), #217, .T. ) ;
#58 = AXIS2_PLACEMENT_3D ( 'NONE', #7, #4, #148 ) ;
#59 = CIRCLE ( 'NONE', #243, 11.00000000000000000 ) ;
#60 = FACE_OUTER_BOUND ( 'NONE', #42, .T. ) ;
#61 = ORIENTED_EDGE ( 'NONE', *, *, #139, .F. ) ;
#62 = CARTESIAN_POINT ( 'NONE',  ( 0.000000000000000000, 0.000000000000000000, 0.000000000000000000 ) ) ;
#63 = DIRECTION ( 'NONE',  ( 1.000000000000000000, 0.000000000000000000, 0.000000000000000000 ) ) ;
#64 = ORIENTED_EDGE ( 'NONE', *, *, #69, .F. ) ;
#65 = DIRECTION ( 'NONE',  ( -0.000000000000000000, -0.000000000000000000, -1.000000000000000000 ) ) ;
#66 = DIRECTION ( 'NONE',  ( -0.000000000000000000, -0.000000000000000000, -1.000000000000000000 ) ) ;
#67 = DIRECTION ( 'NONE',  ( 0.000000000000000000, 0.000000000000000000, 1.000000000000000000 ) ) ;
#68 = AXIS2_PLACEMENT_3D ( 'NONE', #110, #175, #246 ) ;
#69 = EDGE_CURVE ( 'NONE', #108, #132, #133, .T. ) ;
#70 = DIRECTION ( 'NONE',  ( 1.000000000000000000, 0.000000000000000000, 0.000000000000000000 ) ) ;
#71 = DESIGN_CONTEXT ( 'detailed design', #37, 'design' ) ;
#72 = UNCERTAINTY_MEASURE_WITH_UNIT (LENGTH_MEASURE( 1.000000000000000082E-05 ), #91, 'distance_accuracy_value', 'NONE');
#73 = COORDINATED_UNIVERSAL_TIME_OFFSET ( 1, 0, .AHEAD. ) ;
#74 = CALENDAR_DATE ( 2022, 7, 7 ) ;
#75 = PERSON_AND_ORGANIZATION_ROLE ( 'classification_officer' ) ;
#76 = CC_DESIGN_DATE_AND_TIME_ASSIGNMENT ( #51, #53, ( #229 ) ) ;
#77 = CIRCLE ( 'NONE', #68, 11.00000000000000000 ) ;
#78 = APPROVAL ( #209, 'NEURÈENÝ' ) ;
#79 = FACE_OUTER_BOUND ( 'NONE', #20, .T. ) ;
#80 = FACE_OUTER_BOUND ( 'NONE', #127, .T. ) ;
#81 = ORIENTED_EDGE ( 'NONE', *, *, #103, .F. ) ;
#82 = LOCAL_TIME ( 19, 8, 18.00000000000000000, #54 ) ;
#83 = DIRECTION ( 'NONE',  ( 1.000000000000000000, 0.000000000000000000, -0.000000000000000000 ) ) ;
#84 = DIRECTION ( 'NONE',  ( 0.000000000000000000, 0.000000000000000000, 1.000000000000000000 ) ) ;
#85 = ORIENTED_EDGE ( 'NONE', *, *, #139, .T. ) ;
#86 = DIRECTION ( 'NONE',  ( -0.000000000000000000, -0.000000000000000000, -1.000000000000000000 ) ) ;
#87 = CARTESIAN_POINT ( 'NONE',  ( 0.000000000000000000, 0.000000000000000000, 7.000000000000000000 ) ) ;
#88 = EDGE_CURVE ( 'NONE', #38, #114, #77, .T. ) ;
#89 = VERTEX_POINT ( 'NONE', #30 ) ;
#90 = DIRECTION ( 'NONE',  ( 0.000000000000000000, 0.000000000000000000, 1.000000000000000000 ) ) ;
#91 =( LENGTH_UNIT ( ) NAMED_UNIT ( * ) SI_UNIT ( .MILLI., .METRE. ) );
#92 = EDGE_LOOP ( 'NONE', ( #64, #168, #128, #40 ) ) ;
#93 = DIRECTION ( 'NONE',  ( 1.000000000000000000, 0.000000000000000000, 0.000000000000000000 ) ) ;
#94 = DIRECTION ( 'NONE',  ( -0.000000000000000000, -0.000000000000000000, -1.000000000000000000 ) ) ;
#95 = APPROVAL_ROLE ( '' ) ;
#96 = APPROVAL_PERSON_ORGANIZATION ( #228, #251, #252 ) ;
#97 = DATE_TIME_ROLE ( 'creation_date' ) ;
#98 = EDGE_CURVE ( 'NONE', #38, #89, #239, .T. ) ;
#99 = PERSON_AND_ORGANIZATION ( #230, #199 ) ;
#100 = CIRCLE ( 'NONE', #233, 8.000000000000000000 ) ;
#101 = APPROVAL_PERSON_ORGANIZATION ( #178, #177, #50 ) ;
#102 = DATE_AND_TIME ( #33, #48 ) ;
#103 = EDGE_CURVE ( 'NONE', #89, #196, #59, .T. ) ;
#104 = VECTOR ( 'NONE', #94, 1000.000000000000000 ) ;
#105 = DIRECTION ( 'NONE',  ( -0.000000000000000000, -0.000000000000000000, -1.000000000000000000 ) ) ;
#106 = CC_DESIGN_PERSON_AND_ORGANIZATION_ASSIGNMENT ( #208, #32, ( #119 ) ) ;
#107 = ORIENTED_EDGE ( 'NONE', *, *, #227, .F. ) ;
#108 = VERTEX_POINT ( 'NONE', #184 ) ;
#109 = CC_DESIGN_APPROVAL ( #251, ( #119 ) ) ;
#110 = CARTESIAN_POINT ( 'NONE',  ( 0.000000000000000000, 0.000000000000000000, 7.000000000000000000 ) ) ;
#111 = CARTESIAN_POINT ( 'NONE',  ( 0.000000000000000000, 0.000000000000000000, 107.0000000000000142 ) ) ;
#112 = CARTESIAN_POINT ( 'NONE',  ( 0.000000000000000000, 0.000000000000000000, 0.000000000000000000 ) ) ;
#113 = CARTESIAN_POINT ( 'NONE',  ( -8.000000000000000000, 0.000000000000000000, 107.0000000000000142 ) ) ;
#114 = VERTEX_POINT ( 'NONE', #45 ) ;
#115 = EDGE_CURVE ( 'NONE', #241, #132, #118, .T. ) ;
#116 = LOCAL_TIME ( 19, 8, 18.00000000000000000, #73 ) ;
#117 = PERSON_AND_ORGANIZATION ( #230, #199 ) ;
#118 = CIRCLE ( 'NONE', #212, 8.000000000000000000 ) ;
#119 = PRODUCT_DEFINITION_FORMATION_WITH_SPECIFIED_SOURCE ( 'LIBOVOLNÝ', '', #31, .NOT_KNOWN. ) ;
#120 = CALENDAR_DATE ( 2022, 7, 7 ) ;
#121 = SECURITY_CLASSIFICATION_LEVEL ( 'unclassified' ) ;
#122 = CIRCLE ( 'NONE', #5, 11.00000000000000000 ) ;
#123 = AXIS2_PLACEMENT_3D ( 'NONE', #47, #136, #135 ) ;
#124 = LOCAL_TIME ( 19, 8, 18.00000000000000000, #180 ) ;
#125 = ADVANCED_FACE ( 'NONE', ( #60 ), #181, .T. ) ;
#126 =( NAMED_UNIT ( * ) SI_UNIT ( $, .STERADIAN. ) SOLID_ANGLE_UNIT ( ) );
#127 = EDGE_LOOP ( 'NONE', ( #146, #107, #174, #204 ) ) ;
#128 = ORIENTED_EDGE ( 'NONE', *, *, #29, .T. ) ;
#129 = CARTESIAN_POINT ( 'NONE',  ( 8.000000000000000000, 9.797174393178825657E-16, 107.0000000000000142 ) ) ;
#130 = CC_DESIGN_DATE_AND_TIME_ASSIGNMENT ( #158, #97, ( #18 ) ) ;
#131 = MECHANICAL_CONTEXT ( 'NONE', #244, 'mechanical' ) ;
#132 = VERTEX_POINT ( 'NONE', #134 ) ;
#133 = LINE ( 'NONE', #129, #24 ) ;
#134 = CARTESIAN_POINT ( 'NONE',  ( 8.000000000000000000, 9.797174393178825657E-16, 7.000000000000000000 ) ) ;
#135 = DIRECTION ( 'NONE',  ( -1.000000000000000000, 0.000000000000000000, 0.000000000000000000 ) ) ;
#136 = DIRECTION ( 'NONE',  ( -0.000000000000000000, -0.000000000000000000, -1.000000000000000000 ) ) ;
#137 = CC_DESIGN_APPROVAL ( #78, ( #229 ) ) ;
#138 = APPROVAL_STATUS ( 'not_yet_approved' ) ;
#139 = EDGE_CURVE ( 'NONE', #108, #172, #23, .T. ) ;
#140 = SHAPE_DEFINITION_REPRESENTATION ( #211, #151 ) ;
#141 = AXIS2_PLACEMENT_3D ( 'NONE', #62, #186, #93 ) ;
#142 = PERSON_AND_ORGANIZATION ( #230, #199 ) ;
#143 = CC_DESIGN_PERSON_AND_ORGANIZATION_ASSIGNMENT ( #117, #75, ( #229 ) ) ;
#144 = CC_DESIGN_PERSON_AND_ORGANIZATION_ASSIGNMENT ( #198, #17, ( #31 ) ) ;
#145 = DIRECTION ( 'NONE',  ( 1.000000000000000000, 0.000000000000000000, 0.000000000000000000 ) ) ;
#146 = ORIENTED_EDGE ( 'NONE', *, *, #98, .F. ) ;
#147 = ORIENTED_EDGE ( 'NONE', *, *, #103, .T. ) ;
#148 = DIRECTION ( 'NONE',  ( -1.000000000000000000, 0.000000000000000000, 0.000000000000000000 ) ) ;
#149 = DIRECTION ( 'NONE',  ( 1.000000000000000000, 0.000000000000000000, 0.000000000000000000 ) ) ;
#150 = FACE_OUTER_BOUND ( 'NONE', #167, .T. ) ;
#151 = ADVANCED_BREP_SHAPE_REPRESENTATION ( '1d8f', ( #36, #207 ), #248 ) ;
#152 = PLANE ( 'NONE',  #224 ) ;
#153 = ORIENTED_EDGE ( 'NONE', *, *, #162, .T. ) ;
#154 = APPROVAL_PERSON_ORGANIZATION ( #99, #78, #95 ) ;
#155 = ORIENTED_EDGE ( 'NONE', *, *, #88, .F. ) ;
#156 = DIRECTION ( 'NONE',  ( 1.000000000000000000, 0.000000000000000000, 0.000000000000000000 ) ) ;
#157 = AXIS2_PLACEMENT_3D ( 'NONE', #111, #171, #237 ) ;
#158 = DATE_AND_TIME ( #74, #116 ) ;
#159 = APPLICATION_PROTOCOL_DEFINITION ( 'international standard', 'config_control_design', 1994, #37 ) ;
#160 = APPROVAL_STATUS ( 'not_yet_approved' ) ;
#161 = AXIS2_PLACEMENT_3D ( 'NONE', #189, #86, #182 ) ;
#162 = EDGE_CURVE ( 'NONE', #132, #241, #100, .T. ) ;
#163 = APPROVAL_DATE_TIME ( #19, #177 ) ;
#164 = DIRECTION ( 'NONE',  ( 1.000000000000000000, 0.000000000000000000, 0.000000000000000000 ) ) ;
#165 = AXIS2_PLACEMENT_3D ( 'NONE', #87, #105, #1 ) ;
#166 = DIRECTION ( 'NONE',  ( 0.000000000000000000, 0.000000000000000000, 1.000000000000000000 ) ) ;
#167 = EDGE_LOOP ( 'NONE', ( #61, #2, #153, #6 ) ) ;
#168 = ORIENTED_EDGE ( 'NONE', *, *, #21, .F. ) ;
#169 = CARTESIAN_POINT ( 'NONE',  ( -11.00000000000000000, 0.000000000000000000, 0.000000000000000000 ) ) ;
#170 = FACE_OUTER_BOUND ( 'NONE', #92, .T. ) ;
#171 = DIRECTION ( 'NONE',  ( 0.000000000000000000, 0.000000000000000000, 1.000000000000000000 ) ) ;
#172 = VERTEX_POINT ( 'NONE', #113 ) ;
#173 = CYLINDRICAL_SURFACE ( 'NONE', #161, 8.000000000000000000 ) ;
#174 = ORIENTED_EDGE ( 'NONE', *, *, #238, .T. ) ;
#175 = DIRECTION ( 'NONE',  ( 0.000000000000000000, 0.000000000000000000, 1.000000000000000000 ) ) ;
#176 = DIRECTION ( 'NONE',  ( 0.000000000000000000, 0.000000000000000000, 1.000000000000000000 ) ) ;
#177 = APPROVAL ( #160, 'NEURÈENÝ' ) ;
#178 = PERSON_AND_ORGANIZATION ( #230, #199 ) ;
#179 = APPROVAL_DATE_TIME ( #102, #251 ) ;
#180 = COORDINATED_UNIVERSAL_TIME_OFFSET ( 1, 0, .AHEAD. ) ;
#181 = PLANE ( 'NONE',  #157 ) ;
#182 = DIRECTION ( 'NONE',  ( -1.000000000000000000, 0.000000000000000000, 0.000000000000000000 ) ) ;
#183 = DIRECTION ( 'NONE',  ( 0.000000000000000000, 0.000000000000000000, 1.000000000000000000 ) ) ;
#184 = CARTESIAN_POINT ( 'NONE',  ( 8.000000000000000000, 9.797174393178825657E-16, 107.0000000000000142 ) ) ;
#185 = CYLINDRICAL_SURFACE ( 'NONE', #165, 11.00000000000000000 ) ;
#186 = DIRECTION ( 'NONE',  ( 0.000000000000000000, 0.000000000000000000, 1.000000000000000000 ) ) ;
#187 = AXIS2_PLACEMENT_3D ( 'NONE', #28, #214, #83 ) ;
#188 = CC_DESIGN_SECURITY_CLASSIFICATION ( #229, ( #119 ) ) ;
#189 = CARTESIAN_POINT ( 'NONE',  ( 0.000000000000000000, 0.000000000000000000, 107.0000000000000142 ) ) ;
#190 = DATE_AND_TIME ( #120, #124 ) ;
#191 = PERSON_AND_ORGANIZATION_ROLE ( 'design_supplier' ) ;
#192 = COORDINATED_UNIVERSAL_TIME_OFFSET ( 1, 0, .AHEAD. ) ;
#193 = CLOSED_SHELL ( 'NONE', ( #35, #49, #210, #57, #218, #15, #125 ) ) ;
#194 = ORIENTED_EDGE ( 'NONE', *, *, #98, .T. ) ;
#195 = CARTESIAN_POINT ( 'NONE',  ( 0.000000000000000000, 0.000000000000000000, 0.000000000000000000 ) ) ;
#196 = VERTEX_POINT ( 'NONE', #169 ) ;
#197 = DIRECTION ( 'NONE',  ( 1.000000000000000000, 0.000000000000000000, 0.000000000000000000 ) ) ;
#198 = PERSON_AND_ORGANIZATION ( #230, #199 ) ;
#199 = ORGANIZATION ( 'NEURÈENÝ', 'NEURÈENÝ', '' ) ;
#200 = ORIENTED_EDGE ( 'NONE', *, *, #55, .F. ) ;
#201 = CARTESIAN_POINT ( 'NONE',  ( 11.00000000000000000, 1.347111479062088405E-15, 7.000000000000000000 ) ) ;
#202 =( NAMED_UNIT ( * ) PLANE_ANGLE_UNIT ( ) SI_UNIT ( $, .RADIAN. ) );
#203 = PRODUCT_RELATED_PRODUCT_CATEGORY ( 'detail', '', ( #31 ) ) ;
#204 = ORIENTED_EDGE ( 'NONE', *, *, #55, .T. ) ;
#205 = ORIENTED_EDGE ( 'NONE', *, *, #227, .T. ) ;
#206 = FACE_OUTER_BOUND ( 'NONE', #44, .T. ) ;
#207 = AXIS2_PLACEMENT_3D ( 'NONE', #25, #84, #149 ) ;
#208 = PERSON_AND_ORGANIZATION ( #230, #199 ) ;
#209 = APPROVAL_STATUS ( 'not_yet_approved' ) ;
#210 = ADVANCED_FACE ( 'NONE', ( #80 ), #185, .T. ) ;
#211 = PRODUCT_DEFINITION_SHAPE ( 'NONE', 'NONE',  #18 ) ;
#212 = AXIS2_PLACEMENT_3D ( 'NONE', #9, #67, #156 ) ;
#213 = CARTESIAN_POINT ( 'NONE',  ( -11.00000000000000000, 0.000000000000000000, 7.000000000000000000 ) ) ;
#214 = DIRECTION ( 'NONE',  ( 0.000000000000000000, 0.000000000000000000, 1.000000000000000000 ) ) ;
#215 = CARTESIAN_POINT ( 'NONE',  ( 0.000000000000000000, 0.000000000000000000, 7.000000000000000000 ) ) ;
#216 = ORIENTED_EDGE ( 'NONE', *, *, #115, .F. ) ;
#217 = PLANE ( 'NONE',  #187 ) ;
#218 = ADVANCED_FACE ( 'NONE', ( #79 ), #152, .F. ) ;
#219 = DIRECTION ( 'NONE',  ( 0.000000000000000000, 0.000000000000000000, 1.000000000000000000 ) ) ;
#220 = LOCAL_TIME ( 19, 8, 18.00000000000000000, #225 ) ;
#221 = CARTESIAN_POINT ( 'NONE',  ( 0.000000000000000000, 0.000000000000000000, 107.0000000000000142 ) ) ;
#222 = ORIENTED_EDGE ( 'NONE', *, *, #21, .T. ) ;
#223 = CC_DESIGN_PERSON_AND_ORGANIZATION_ASSIGNMENT ( #13, #191, ( #119 ) ) ;
#224 = AXIS2_PLACEMENT_3D ( 'NONE', #195, #219, #39 ) ;
#225 = COORDINATED_UNIVERSAL_TIME_OFFSET ( 1, 0, .AHEAD. ) ;
#226 = APPROVAL_DATE_TIME ( #190, #78 ) ;
#227 = EDGE_CURVE ( 'NONE', #114, #38, #122, .T. ) ;
#228 = PERSON_AND_ORGANIZATION ( #230, #199 ) ;
#229 = SECURITY_CLASSIFICATION ( '', '', #121 ) ;
#230 = PERSON ( 'NEURÈENÝ', 'NEURÈENÝ', 'NEURÈENÝ', ('NEURÈENÝ'), ('NEURÈENÝ'), ('NEURÈENÝ') ) ;
#231 = CARTESIAN_POINT ( 'NONE',  ( 0.000000000000000000, 0.000000000000000000, 7.000000000000000000 ) ) ;
#232 = CIRCLE ( 'NONE', #141, 11.00000000000000000 ) ;
#233 = AXIS2_PLACEMENT_3D ( 'NONE', #231, #27, #63 ) ;
#234 = APPLICATION_PROTOCOL_DEFINITION ( 'international standard', 'config_control_design', 1994, #244 ) ;
#235 = ORIENTED_EDGE ( 'NONE', *, *, #162, .F. ) ;
#236 = LINE ( 'NONE', #26, #104 ) ;
#237 = DIRECTION ( 'NONE',  ( 1.000000000000000000, 0.000000000000000000, -0.000000000000000000 ) ) ;
#238 = EDGE_CURVE ( 'NONE', #114, #196, #240, .T. ) ;
#239 = LINE ( 'NONE', #242, #14 ) ;
#240 = LINE ( 'NONE', #213, #34 ) ;
#241 = VERTEX_POINT ( 'NONE', #56 ) ;
#242 = CARTESIAN_POINT ( 'NONE',  ( 11.00000000000000000, 1.347111479062088405E-15, 7.000000000000000000 ) ) ;
#243 = AXIS2_PLACEMENT_3D ( 'NONE', #112, #90, #70 ) ;
#244 = APPLICATION_CONTEXT ( 'configuration controlled 3d designs of mechanical parts and assemblies' ) ;
#245 = ORIENTED_EDGE ( 'NONE', *, *, #88, .T. ) ;
#246 = DIRECTION ( 'NONE',  ( 1.000000000000000000, 0.000000000000000000, 0.000000000000000000 ) ) ;
#247 = CYLINDRICAL_SURFACE ( 'NONE', #58, 11.00000000000000000 ) ;
#248 =( GEOMETRIC_REPRESENTATION_CONTEXT ( 3 ) GLOBAL_UNCERTAINTY_ASSIGNED_CONTEXT ( ( #72 ) ) GLOBAL_UNIT_ASSIGNED_CONTEXT ( ( #91, #202, #126 ) ) REPRESENTATION_CONTEXT ( 'NONE', 'WORKASPACE' ) );
#249 = CIRCLE ( 'NONE', #52, 8.000000000000000000 ) ;
#250 = CALENDAR_DATE ( 2022, 7, 7 ) ;
#251 = APPROVAL ( #138, 'NEURÈENÝ' ) ;
#252 = APPROVAL_ROLE ( '' ) ;
#253 = AXIS2_PLACEMENT_3D ( 'NONE', #10, #183, #145 ) ;
#254 = CC_DESIGN_APPROVAL ( #177, ( #18 ) ) ;
#255 = CALENDAR_DATE ( 2022, 7, 7 ) ;
ENDSEC;
END-ISO-10303-21;
