ISO-10303-21;
HEADER;
FILE_DESCRIPTION (( 'STEP AP203' ),
    '1' );
FILE_NAME ('1840.STEP',
    '2023-02-13T11:36:05',
    ( '' ),
    ( '' ),
    'SwSTEP 2.0',
    'SolidWorks 2019',
    '' );
FILE_SCHEMA (( 'CONFIG_CONTROL_DESIGN' ));
ENDSEC;

DATA;
#1 = CARTESIAN_POINT ( 'NONE',  ( 0.000000000000000000, 0.000000000000000000, 200.0000000000000000 ) ) ;
#2 = CYLINDRICAL_SURFACE ( 'NONE', #228, 6.500000000000000888 ) ;
#3 = ORIENTED_EDGE ( 'NONE', *, *, #104, .F. ) ;
#4 = CARTESIAN_POINT ( 'NONE',  ( 0.000000000000000000, 0.000000000000000000, 200.0000000000000000 ) ) ;
#5 = CALENDAR_DATE ( 2023, 13, 2 ) ;
#6 = APPROVAL_ROLE ( '' ) ;
#7 = CC_DESIGN_SECURITY_CLASSIFICATION ( #130, ( #71 ) ) ;
#8 = DIRECTION ( 'NONE',  ( 0.000000000000000000, 0.000000000000000000, 1.000000000000000000 ) ) ;
#9 = DIRECTION ( 'NONE',  ( 1.000000000000000000, 0.000000000000000000, -0.000000000000000000 ) ) ;
#10 = DATE_TIME_ROLE ( 'creation_date' ) ;
#11 = VERTEX_POINT ( 'NONE', #90 ) ;
#12 = AXIS2_PLACEMENT_3D ( 'NONE', #229, #56, #30 ) ;
#13 = APPROVAL_PERSON_ORGANIZATION ( #114, #194, #6 ) ;
#14 = CC_DESIGN_DATE_AND_TIME_ASSIGNMENT ( #52, #10, ( #204 ) ) ;
#15 = ORIENTED_EDGE ( 'NONE', *, *, #227, .F. ) ;
#16 = ORIENTED_EDGE ( 'NONE', *, *, #32, .F. ) ;
#17 = PRODUCT ( '1840', '1840', '', ( #219 ) ) ;
#18 = EDGE_LOOP ( 'NONE', ( #40, #156 ) ) ;
#19 = DIRECTION ( 'NONE',  ( -0.000000000000000000, -0.000000000000000000, -1.000000000000000000 ) ) ;
#20 = ORIENTED_EDGE ( 'NONE', *, *, #142, .F. ) ;
#21 = CARTESIAN_POINT ( 'NONE',  ( 0.000000000000000000, 0.000000000000000000, 7.000000000000000000 ) ) ;
#22 = CARTESIAN_POINT ( 'NONE',  ( 0.000000000000000000, 0.000000000000000000, 200.0000000000000000 ) ) ;
#23 = APPLICATION_CONTEXT ( 'configuration controlled 3d designs of mechanical parts and assemblies' ) ;
#24 = CARTESIAN_POINT ( 'NONE',  ( 6.500000000000000888, 7.960204194457796463E-16, 200.0000000000000000 ) ) ;
#25 = APPROVAL ( #166, 'NEURÈENÝ' ) ;
#26 = APPROVAL_PERSON_ORGANIZATION ( #97, #25, #101 ) ;
#27 = DIRECTION ( 'NONE',  ( 1.000000000000000000, 0.000000000000000000, 0.000000000000000000 ) ) ;
#28 = VERTEX_POINT ( 'NONE', #168 ) ;
#29 = CARTESIAN_POINT ( 'NONE',  ( 6.500000000000000888, 7.960204194457796463E-16, 7.000000000000000000 ) ) ;
#30 = DIRECTION ( 'NONE',  ( 1.000000000000000000, 0.000000000000000000, 0.000000000000000000 ) ) ;
#31 = APPLICATION_CONTEXT ( 'configuration controlled 3d designs of mechanical parts and assemblies' ) ;
#32 = EDGE_CURVE ( 'NONE', #155, #124, #151, .T. ) ;
#33 = CALENDAR_DATE ( 2023, 13, 2 ) ;
#34 = DATE_AND_TIME ( #5, #137 ) ;
#35 = EDGE_LOOP ( 'NONE', ( #212, #178, #70, #3 ) ) ;
#36 = CC_DESIGN_DATE_AND_TIME_ASSIGNMENT ( #62, #203, ( #130 ) ) ;
#37 = AXIS2_PLACEMENT_3D ( 'NONE', #234, #198, #182 ) ;
#38 = PLANE ( 'NONE',  #68 ) ;
#39 = VERTEX_POINT ( 'NONE', #108 ) ;
#40 = ORIENTED_EDGE ( 'NONE', *, *, #32, .T. ) ;
#41 = AXIS2_PLACEMENT_3D ( 'NONE', #93, #126, #159 ) ;
#42 = CARTESIAN_POINT ( 'NONE',  ( 0.000000000000000000, 0.000000000000000000, 0.000000000000000000 ) ) ;
#43 = DIRECTION ( 'NONE',  ( -1.000000000000000000, 0.000000000000000000, 0.000000000000000000 ) ) ;
#44 = ADVANCED_FACE ( 'NONE', ( #147 ), #122, .T. ) ;
#45 = APPLICATION_PROTOCOL_DEFINITION ( 'international standard', 'config_control_design', 1994, #23 ) ;
#46 = CARTESIAN_POINT ( 'NONE',  ( 0.000000000000000000, 0.000000000000000000, 7.000000000000000000 ) ) ;
#47 = DIRECTION ( 'NONE',  ( -1.000000000000000000, 0.000000000000000000, 0.000000000000000000 ) ) ;
#48 = DESIGN_CONTEXT ( 'detailed design', #23, 'design' ) ;
#49 = DIRECTION ( 'NONE',  ( 0.000000000000000000, 0.000000000000000000, 1.000000000000000000 ) ) ;
#50 = VERTEX_POINT ( 'NONE', #251 ) ;
#51 = DIRECTION ( 'NONE',  ( -1.000000000000000000, 0.000000000000000000, 0.000000000000000000 ) ) ;
#52 = DATE_AND_TIME ( #245, #250 ) ;
#53 = CARTESIAN_POINT ( 'NONE',  ( 0.000000000000000000, 0.000000000000000000, 200.0000000000000000 ) ) ;
#54 = ADVANCED_BREP_SHAPE_REPRESENTATION ( '1840', ( #157, #64 ), #161 ) ;
#55 = PERSON_AND_ORGANIZATION ( #190, #61 ) ;
#56 = DIRECTION ( 'NONE',  ( 0.000000000000000000, 0.000000000000000000, 1.000000000000000000 ) ) ;
#57 = DATE_AND_TIME ( #239, #176 ) ;
#58 = EDGE_CURVE ( 'NONE', #79, #50, #92, .T. ) ;
#59 = CLOSED_SHELL ( 'NONE', ( #181, #44, #91, #66, #135, #87, #254 ) ) ;
#60 = COORDINATED_UNIVERSAL_TIME_OFFSET ( 1, 0, .AHEAD. ) ;
#61 = ORGANIZATION ( 'NEURÈENÝ', 'NEURÈENÝ', '' ) ;
#62 = DATE_AND_TIME ( #225, #199 ) ;
#63 = CC_DESIGN_PERSON_AND_ORGANIZATION_ASSIGNMENT ( #152, #243, ( #71 ) ) ;
#64 = AXIS2_PLACEMENT_3D ( 'NONE', #42, #106, #27 ) ;
#65 = EDGE_LOOP ( 'NONE', ( #217, #16, #252, #162 ) ) ;
#66 = ADVANCED_FACE ( 'NONE', ( #233, #208 ), #38, .T. ) ;
#67 = ORIENTED_EDGE ( 'NONE', *, *, #58, .F. ) ;
#68 = AXIS2_PLACEMENT_3D ( 'NONE', #120, #85, #107 ) ;
#69 = AXIS2_PLACEMENT_3D ( 'NONE', #187, #72, #241 ) ;
#70 = ORIENTED_EDGE ( 'NONE', *, *, #153, .T. ) ;
#71 = PRODUCT_DEFINITION_FORMATION_WITH_SPECIFIED_SOURCE ( 'LIBOVOLNÝ', '', #17, .NOT_KNOWN. ) ;
#72 = DIRECTION ( 'NONE',  ( 0.000000000000000000, 0.000000000000000000, 1.000000000000000000 ) ) ;
#73 = UNCERTAINTY_MEASURE_WITH_UNIT (LENGTH_MEASURE( 1.000000000000000082E-05 ), #134, 'distance_accuracy_value', 'NONE');
#74 = EDGE_LOOP ( 'NONE', ( #20, #112 ) ) ;
#75 = DIRECTION ( 'NONE',  ( 0.000000000000000000, 0.000000000000000000, 1.000000000000000000 ) ) ;
#76 = APPLICATION_PROTOCOL_DEFINITION ( 'international standard', 'config_control_design', 1994, #31 ) ;
#77 = PLANE ( 'NONE',  #37 ) ;
#78 = COORDINATED_UNIVERSAL_TIME_OFFSET ( 1, 0, .AHEAD. ) ;
#79 = VERTEX_POINT ( 'NONE', #167 ) ;
#80 = CIRCLE ( 'NONE', #133, 11.00000000000000000 ) ;
#81 = PERSON_AND_ORGANIZATION_ROLE ( 'classification_officer' ) ;
#82 = AXIS2_PLACEMENT_3D ( 'NONE', #21, #220, #200 ) ;
#83 = EDGE_CURVE ( 'NONE', #124, #195, #123, .T. ) ;
#84 = PRODUCT_DEFINITION_SHAPE ( 'NONE', 'NONE',  #204 ) ;
#85 = DIRECTION ( 'NONE',  ( 0.000000000000000000, 0.000000000000000000, 1.000000000000000000 ) ) ;
#86 = CC_DESIGN_APPROVAL ( #98, ( #204 ) ) ;
#87 = ADVANCED_FACE ( 'NONE', ( #141 ), #143, .T. ) ;
#88 = ORIENTED_EDGE ( 'NONE', *, *, #231, .T. ) ;
#89 = ORIENTED_EDGE ( 'NONE', *, *, #236, .F. ) ;
#90 = CARTESIAN_POINT ( 'NONE',  ( -11.00000000000000000, 0.000000000000000000, 0.000000000000000000 ) ) ;
#91 = ADVANCED_FACE ( 'NONE', ( #253 ), #213, .T. ) ;
#92 = LINE ( 'NONE', #191, #235 ) ;
#93 = CARTESIAN_POINT ( 'NONE',  ( 0.000000000000000000, 0.000000000000000000, 0.000000000000000000 ) ) ;
#94 = LINE ( 'NONE', #255, #170 ) ;
#95 = CARTESIAN_POINT ( 'NONE',  ( 6.500000000000000888, 7.960204194457796463E-16, 200.0000000000000000 ) ) ;
#96 = FACE_OUTER_BOUND ( 'NONE', #193, .T. ) ;
#97 = PERSON_AND_ORGANIZATION ( #190, #61 ) ;
#98 = APPROVAL ( #188, 'NEURÈENÝ' ) ;
#99 = AXIS2_PLACEMENT_3D ( 'NONE', #238, #75, #150 ) ;
#100 = DATE_AND_TIME ( #33, #102 ) ;
#101 = APPROVAL_ROLE ( '' ) ;
#102 = LOCAL_TIME ( 12, 36, 5.000000000000000000, #60 ) ;
#103 = EDGE_LOOP ( 'NONE', ( #105, #88 ) ) ;
#104 = EDGE_CURVE ( 'NONE', #39, #11, #113, .T. ) ;
#105 = ORIENTED_EDGE ( 'NONE', *, *, #236, .T. ) ;
#106 = DIRECTION ( 'NONE',  ( 0.000000000000000000, 0.000000000000000000, 1.000000000000000000 ) ) ;
#107 = DIRECTION ( 'NONE',  ( 1.000000000000000000, 0.000000000000000000, -0.000000000000000000 ) ) ;
#108 = CARTESIAN_POINT ( 'NONE',  ( -11.00000000000000000, 0.000000000000000000, 7.000000000000000000 ) ) ;
#109 = CC_DESIGN_PERSON_AND_ORGANIZATION_ASSIGNMENT ( #146, #174, ( #71 ) ) ;
#110 = DIRECTION ( 'NONE',  ( 0.000000000000000000, 0.000000000000000000, 1.000000000000000000 ) ) ;
#111 = DIRECTION ( 'NONE',  ( 0.000000000000000000, 0.000000000000000000, 1.000000000000000000 ) ) ;
#112 = ORIENTED_EDGE ( 'NONE', *, *, #173, .F. ) ;
#113 = LINE ( 'NONE', #218, #115 ) ;
#114 = PERSON_AND_ORGANIZATION ( #190, #61 ) ;
#115 = VECTOR ( 'NONE', #131, 1000.000000000000000 ) ;
#116 = CIRCLE ( 'NONE', #12, 11.00000000000000000 ) ;
#117 = SHAPE_DEFINITION_REPRESENTATION ( #84, #54 ) ;
#118 = AXIS2_PLACEMENT_3D ( 'NONE', #1, #19, #47 ) ;
#119 = CIRCLE ( 'NONE', #69, 6.500000000000000888 ) ;
#120 = CARTESIAN_POINT ( 'NONE',  ( 0.000000000000000000, 0.000000000000000000, 7.000000000000000000 ) ) ;
#121 = AXIS2_PLACEMENT_3D ( 'NONE', #201, #111, #160 ) ;
#122 = CYLINDRICAL_SURFACE ( 'NONE', #186, 11.00000000000000000 ) ;
#123 = LINE ( 'NONE', #95, #129 ) ;
#124 = VERTEX_POINT ( 'NONE', #24 ) ;
#125 = PERSON_AND_ORGANIZATION ( #190, #61 ) ;
#126 = DIRECTION ( 'NONE',  ( 0.000000000000000000, 0.000000000000000000, 1.000000000000000000 ) ) ;
#127 = CC_DESIGN_PERSON_AND_ORGANIZATION_ASSIGNMENT ( #55, #81, ( #130 ) ) ;
#128 = DIRECTION ( 'NONE',  ( -0.000000000000000000, -0.000000000000000000, -1.000000000000000000 ) ) ;
#129 = VECTOR ( 'NONE', #183, 1000.000000000000000 ) ;
#130 = SECURITY_CLASSIFICATION ( '', '', #224 ) ;
#131 = DIRECTION ( 'NONE',  ( -0.000000000000000000, -0.000000000000000000, -1.000000000000000000 ) ) ;
#132 = COORDINATED_UNIVERSAL_TIME_OFFSET ( 1, 0, .AHEAD. ) ;
#133 = AXIS2_PLACEMENT_3D ( 'NONE', #139, #110, #163 ) ;
#134 =( LENGTH_UNIT ( ) NAMED_UNIT ( * ) SI_UNIT ( .MILLI., .METRE. ) );
#135 = ADVANCED_FACE ( 'NONE', ( #165 ), #77, .F. ) ;
#136 = EDGE_LOOP ( 'NONE', ( #67, #89, #179, #138 ) ) ;
#137 = LOCAL_TIME ( 12, 36, 5.000000000000000000, #171 ) ;
#138 = ORIENTED_EDGE ( 'NONE', *, *, #240, .T. ) ;
#139 = CARTESIAN_POINT ( 'NONE',  ( 0.000000000000000000, 0.000000000000000000, 7.000000000000000000 ) ) ;
#140 = PERSON_AND_ORGANIZATION ( #190, #61 ) ;
#141 = FACE_OUTER_BOUND ( 'NONE', #65, .T. ) ;
#142 = EDGE_CURVE ( 'NONE', #28, #195, #226, .T. ) ;
#143 = CYLINDRICAL_SURFACE ( 'NONE', #118, 6.500000000000000888 ) ;
#144 = ORIENTED_EDGE ( 'NONE', *, *, #173, .T. ) ;
#145 = CC_DESIGN_APPROVAL ( #25, ( #71 ) ) ;
#146 = PERSON_AND_ORGANIZATION ( #190, #61 ) ;
#147 = FACE_OUTER_BOUND ( 'NONE', #35, .T. ) ;
#148 = APPROVAL_ROLE ( '' ) ;
#149 = PRODUCT_RELATED_PRODUCT_CATEGORY ( 'detail', '', ( #17 ) ) ;
#150 = DIRECTION ( 'NONE',  ( 1.000000000000000000, 0.000000000000000000, 0.000000000000000000 ) ) ;
#151 = CIRCLE ( 'NONE', #185, 6.500000000000000888 ) ;
#152 = PERSON_AND_ORGANIZATION ( #190, #61 ) ;
#153 = EDGE_CURVE ( 'NONE', #50, #11, #211, .T. ) ;
#154 = APPROVAL_PERSON_ORGANIZATION ( #125, #98, #148 ) ;
#155 = VERTEX_POINT ( 'NONE', #215 ) ;
#156 = ORIENTED_EDGE ( 'NONE', *, *, #230, .T. ) ;
#157 = MANIFOLD_SOLID_BREP ( 'Pøidat vysunutím3', #59 ) ;
#158 = DIRECTION ( 'NONE',  ( -0.000000000000000000, -0.000000000000000000, -1.000000000000000000 ) ) ;
#159 = DIRECTION ( 'NONE',  ( 1.000000000000000000, 0.000000000000000000, 0.000000000000000000 ) ) ;
#160 = DIRECTION ( 'NONE',  ( 1.000000000000000000, 0.000000000000000000, 0.000000000000000000 ) ) ;
#161 =( GEOMETRIC_REPRESENTATION_CONTEXT ( 3 ) GLOBAL_UNCERTAINTY_ASSIGNED_CONTEXT ( ( #73 ) ) GLOBAL_UNIT_ASSIGNED_CONTEXT ( ( #134, #232, #237 ) ) REPRESENTATION_CONTEXT ( 'NONE', 'WORKASPACE' ) );
#162 = ORIENTED_EDGE ( 'NONE', *, *, #142, .T. ) ;
#163 = DIRECTION ( 'NONE',  ( 1.000000000000000000, 0.000000000000000000, 0.000000000000000000 ) ) ;
#164 = CC_DESIGN_PERSON_AND_ORGANIZATION_ASSIGNMENT ( #175, #207, ( #204 ) ) ;
#165 = FACE_OUTER_BOUND ( 'NONE', #248, .T. ) ;
#166 = APPROVAL_STATUS ( 'not_yet_approved' ) ;
#167 = CARTESIAN_POINT ( 'NONE',  ( 11.00000000000000000, 1.347111479062088405E-15, 7.000000000000000000 ) ) ;
#168 = CARTESIAN_POINT ( 'NONE',  ( -6.500000000000000888, 0.000000000000000000, 7.000000000000000000 ) ) ;
#169 = APPROVAL_DATE_TIME ( #57, #25 ) ;
#170 = VECTOR ( 'NONE', #202, 1000.000000000000000 ) ;
#171 = COORDINATED_UNIVERSAL_TIME_OFFSET ( 1, 0, .AHEAD. ) ;
#172 = ORIENTED_EDGE ( 'NONE', *, *, #83, .T. ) ;
#173 = EDGE_CURVE ( 'NONE', #195, #28, #242, .T. ) ;
#174 = PERSON_AND_ORGANIZATION_ROLE ( 'design_supplier' ) ;
#175 = PERSON_AND_ORGANIZATION ( #190, #61 ) ;
#176 = LOCAL_TIME ( 12, 36, 5.000000000000000000, #78 ) ;
#177 = FACE_OUTER_BOUND ( 'NONE', #18, .T. ) ;
#178 = ORIENTED_EDGE ( 'NONE', *, *, #58, .T. ) ;
#179 = ORIENTED_EDGE ( 'NONE', *, *, #104, .T. ) ;
#180 = DIRECTION ( 'NONE',  ( -0.000000000000000000, -0.000000000000000000, -1.000000000000000000 ) ) ;
#181 = ADVANCED_FACE ( 'NONE', ( #96 ), #2, .T. ) ;
#182 = DIRECTION ( 'NONE',  ( 1.000000000000000000, 0.000000000000000000, -0.000000000000000000 ) ) ;
#183 = DIRECTION ( 'NONE',  ( -0.000000000000000000, -0.000000000000000000, -1.000000000000000000 ) ) ;
#184 = DIRECTION ( 'NONE',  ( 1.000000000000000000, 0.000000000000000000, 0.000000000000000000 ) ) ;
#185 = AXIS2_PLACEMENT_3D ( 'NONE', #22, #49, #184 ) ;
#186 = AXIS2_PLACEMENT_3D ( 'NONE', #197, #180, #210 ) ;
#187 = CARTESIAN_POINT ( 'NONE',  ( 0.000000000000000000, 0.000000000000000000, 200.0000000000000000 ) ) ;
#188 = APPROVAL_STATUS ( 'not_yet_approved' ) ;
#189 = APPROVAL_STATUS ( 'not_yet_approved' ) ;
#190 = PERSON ( 'NEURÈENÝ', 'NEURÈENÝ', 'NEURÈENÝ', ('NEURÈENÝ'), ('NEURÈENÝ'), ('NEURÈENÝ') ) ;
#191 = CARTESIAN_POINT ( 'NONE',  ( 11.00000000000000000, 1.347111479062088405E-15, 7.000000000000000000 ) ) ;
#192 = ORIENTED_EDGE ( 'NONE', *, *, #240, .F. ) ;
#193 = EDGE_LOOP ( 'NONE', ( #196, #172, #144, #15 ) ) ;
#194 = APPROVAL ( #189, 'NEURÈENÝ' ) ;
#195 = VERTEX_POINT ( 'NONE', #29 ) ;
#196 = ORIENTED_EDGE ( 'NONE', *, *, #230, .F. ) ;
#197 = CARTESIAN_POINT ( 'NONE',  ( 0.000000000000000000, 0.000000000000000000, 7.000000000000000000 ) ) ;
#198 = DIRECTION ( 'NONE',  ( 0.000000000000000000, 0.000000000000000000, 1.000000000000000000 ) ) ;
#199 = LOCAL_TIME ( 12, 36, 5.000000000000000000, #132 ) ;
#200 = DIRECTION ( 'NONE',  ( 1.000000000000000000, 0.000000000000000000, 0.000000000000000000 ) ) ;
#201 = CARTESIAN_POINT ( 'NONE',  ( 0.000000000000000000, 0.000000000000000000, 7.000000000000000000 ) ) ;
#202 = DIRECTION ( 'NONE',  ( -0.000000000000000000, -0.000000000000000000, -1.000000000000000000 ) ) ;
#203 = DATE_TIME_ROLE ( 'classification_date' ) ;
#204 = PRODUCT_DEFINITION ( 'NEZNÁMÝ', '', #71, #48 ) ;
#205 = APPROVAL_DATE_TIME ( #100, #194 ) ;
#206 = CC_DESIGN_APPROVAL ( #194, ( #130 ) ) ;
#207 = PERSON_AND_ORGANIZATION_ROLE ( 'creator' ) ;
#208 = FACE_OUTER_BOUND ( 'NONE', #103, .T. ) ;
#209 = ORIENTED_EDGE ( 'NONE', *, *, #153, .F. ) ;
#210 = DIRECTION ( 'NONE',  ( -1.000000000000000000, 0.000000000000000000, 0.000000000000000000 ) ) ;
#211 = CIRCLE ( 'NONE', #41, 11.00000000000000000 ) ;
#212 = ORIENTED_EDGE ( 'NONE', *, *, #231, .F. ) ;
#213 = CYLINDRICAL_SURFACE ( 'NONE', #249, 11.00000000000000000 ) ;
#214 = PERSON_AND_ORGANIZATION_ROLE ( 'design_owner' ) ;
#215 = CARTESIAN_POINT ( 'NONE',  ( -6.500000000000000888, 0.000000000000000000, 200.0000000000000000 ) ) ;
#216 = DIRECTION ( 'NONE',  ( -0.000000000000000000, -0.000000000000000000, -1.000000000000000000 ) ) ;
#217 = ORIENTED_EDGE ( 'NONE', *, *, #83, .F. ) ;
#218 = CARTESIAN_POINT ( 'NONE',  ( -11.00000000000000000, 0.000000000000000000, 7.000000000000000000 ) ) ;
#219 = MECHANICAL_CONTEXT ( 'NONE', #31, 'mechanical' ) ;
#220 = DIRECTION ( 'NONE',  ( 0.000000000000000000, 0.000000000000000000, 1.000000000000000000 ) ) ;
#221 = COORDINATED_UNIVERSAL_TIME_OFFSET ( 1, 0, .AHEAD. ) ;
#222 = CIRCLE ( 'NONE', #99, 11.00000000000000000 ) ;
#223 = PLANE ( 'NONE',  #246 ) ;
#224 = SECURITY_CLASSIFICATION_LEVEL ( 'unclassified' ) ;
#225 = CALENDAR_DATE ( 2023, 13, 2 ) ;
#226 = CIRCLE ( 'NONE', #121, 6.500000000000000888 ) ;
#227 = EDGE_CURVE ( 'NONE', #155, #28, #94, .T. ) ;
#228 = AXIS2_PLACEMENT_3D ( 'NONE', #4, #216, #51 ) ;
#229 = CARTESIAN_POINT ( 'NONE',  ( 0.000000000000000000, 0.000000000000000000, 0.000000000000000000 ) ) ;
#230 = EDGE_CURVE ( 'NONE', #124, #155, #119, .T. ) ;
#231 = EDGE_CURVE ( 'NONE', #79, #39, #80, .T. ) ;
#232 =( NAMED_UNIT ( * ) PLANE_ANGLE_UNIT ( ) SI_UNIT ( $, .RADIAN. ) );
#233 = FACE_BOUND ( 'NONE', #74, .T. ) ;
#234 = CARTESIAN_POINT ( 'NONE',  ( 0.000000000000000000, 0.000000000000000000, 0.000000000000000000 ) ) ;
#235 = VECTOR ( 'NONE', #158, 1000.000000000000000 ) ;
#236 = EDGE_CURVE ( 'NONE', #39, #79, #222, .T. ) ;
#237 =( NAMED_UNIT ( * ) SI_UNIT ( $, .STERADIAN. ) SOLID_ANGLE_UNIT ( ) );
#238 = CARTESIAN_POINT ( 'NONE',  ( 0.000000000000000000, 0.000000000000000000, 7.000000000000000000 ) ) ;
#239 = CALENDAR_DATE ( 2023, 13, 2 ) ;
#240 = EDGE_CURVE ( 'NONE', #11, #50, #116, .T. ) ;
#241 = DIRECTION ( 'NONE',  ( 1.000000000000000000, 0.000000000000000000, 0.000000000000000000 ) ) ;
#242 = CIRCLE ( 'NONE', #82, 6.500000000000000888 ) ;
#243 = PERSON_AND_ORGANIZATION_ROLE ( 'creator' ) ;
#244 = APPROVAL_DATE_TIME ( #34, #98 ) ;
#245 = CALENDAR_DATE ( 2023, 13, 2 ) ;
#246 = AXIS2_PLACEMENT_3D ( 'NONE', #53, #8, #9 ) ;
#247 = CC_DESIGN_PERSON_AND_ORGANIZATION_ASSIGNMENT ( #140, #214, ( #17 ) ) ;
#248 = EDGE_LOOP ( 'NONE', ( #192, #209 ) ) ;
#249 = AXIS2_PLACEMENT_3D ( 'NONE', #46, #128, #43 ) ;
#250 = LOCAL_TIME ( 12, 36, 5.000000000000000000, #221 ) ;
#251 = CARTESIAN_POINT ( 'NONE',  ( 11.00000000000000000, 1.347111479062088405E-15, 0.000000000000000000 ) ) ;
#252 = ORIENTED_EDGE ( 'NONE', *, *, #227, .T. ) ;
#253 = FACE_OUTER_BOUND ( 'NONE', #136, .T. ) ;
#254 = ADVANCED_FACE ( 'NONE', ( #177 ), #223, .T. ) ;
#255 = CARTESIAN_POINT ( 'NONE',  ( -6.500000000000000888, 0.000000000000000000, 200.0000000000000000 ) ) ;
ENDSEC;
END-ISO-10303-21;
