ISO-10303-21;
HEADER;
FILE_DESCRIPTION (( 'STEP AP203' ),
    '1' );
FILE_NAME ('cc47.STEP',
    '2022-07-07T17:08:09',
    ( '' ),
    ( '' ),
    'SwSTEP 2.0',
    'SolidWorks 2019',
    '' );
FILE_SCHEMA (( 'CONFIG_CONTROL_DESIGN' ));
ENDSEC;

DATA;
#1 = VERTEX_POINT ( 'NONE', #163 ) ;
#2 = CARTESIAN_POINT ( 'NONE',  ( 0.000000000000000000, 0.000000000000000000, 0.000000000000000000 ) ) ;
#3 = LINE ( 'NONE', #171, #8 ) ;
#4 = ORIENTED_EDGE ( 'NONE', *, *, #117, .T. ) ;
#5 = ORIENTED_EDGE ( 'NONE', *, *, #119, .F. ) ;
#6 = FACE_OUTER_BOUND ( 'NONE', #228, .T. ) ;
#7 = DIRECTION ( 'NONE',  ( -1.000000000000000000, 0.000000000000000000, 0.000000000000000000 ) ) ;
#8 = VECTOR ( 'NONE', #242, 1000.000000000000000 ) ;
#9 = CYLINDRICAL_SURFACE ( 'NONE', #52, 8.000000000000000000 ) ;
#10 = CYLINDRICAL_SURFACE ( 'NONE', #239, 11.00000000000000000 ) ;
#11 = MECHANICAL_CONTEXT ( 'NONE', #109, 'mechanical' ) ;
#12 = ADVANCED_FACE ( 'NONE', ( #66 ), #49, .F. ) ;
#13 = CALENDAR_DATE ( 2022, 7, 7 ) ;
#14 = APPROVAL_ROLE ( '' ) ;
#15 = APPLICATION_PROTOCOL_DEFINITION ( 'international standard', 'config_control_design', 1994, #109 ) ;
#16 = APPROVAL_STATUS ( 'not_yet_approved' ) ;
#17 = AXIS2_PLACEMENT_3D ( 'NONE', #64, #144, #111 ) ;
#18 = DIRECTION ( 'NONE',  ( 1.000000000000000000, 0.000000000000000000, 0.000000000000000000 ) ) ;
#19 = APPROVAL ( #195, 'NEURÈENÝ' ) ;
#20 = LOCAL_TIME ( 19, 8, 9.000000000000000000, #253 ) ;
#21 = LINE ( 'NONE', #105, #182 ) ;
#22 = ORIENTED_EDGE ( 'NONE', *, *, #47, .T. ) ;
#23 = FACE_OUTER_BOUND ( 'NONE', #241, .T. ) ;
#24 = DIRECTION ( 'NONE',  ( 1.000000000000000000, 0.000000000000000000, 0.000000000000000000 ) ) ;
#25 = ORIENTED_EDGE ( 'NONE', *, *, #248, .F. ) ;
#26 = AXIS2_PLACEMENT_3D ( 'NONE', #208, #231, #24 ) ;
#27 =( GEOMETRIC_REPRESENTATION_CONTEXT ( 3 ) GLOBAL_UNCERTAINTY_ASSIGNED_CONTEXT ( ( #77 ) ) GLOBAL_UNIT_ASSIGNED_CONTEXT ( ( #234, #45, #48 ) ) REPRESENTATION_CONTEXT ( 'NONE', 'WORKASPACE' ) );
#28 = PLANE ( 'NONE',  #201 ) ;
#29 = DIRECTION ( 'NONE',  ( 0.000000000000000000, 0.000000000000000000, 1.000000000000000000 ) ) ;
#30 = DIRECTION ( 'NONE',  ( -1.000000000000000000, 0.000000000000000000, 0.000000000000000000 ) ) ;
#31 = EDGE_CURVE ( 'NONE', #1, #79, #179, .T. ) ;
#32 = AXIS2_PLACEMENT_3D ( 'NONE', #98, #187, #69 ) ;
#33 = AXIS2_PLACEMENT_3D ( 'NONE', #214, #211, #169 ) ;
#34 = DIRECTION ( 'NONE',  ( 1.000000000000000000, 0.000000000000000000, 0.000000000000000000 ) ) ;
#35 = COORDINATED_UNIVERSAL_TIME_OFFSET ( 1, 0, .AHEAD. ) ;
#36 = APPROVAL_ROLE ( '' ) ;
#37 = APPROVAL ( #58, 'NEURÈENÝ' ) ;
#38 = ADVANCED_FACE ( 'NONE', ( #128 ), #184, .T. ) ;
#39 = CC_DESIGN_PERSON_AND_ORGANIZATION_ASSIGNMENT ( #95, #115, ( #132 ) ) ;
#40 = ADVANCED_BREP_SHAPE_REPRESENTATION ( 'cc47', ( #209, #138 ), #27 ) ;
#41 = VERTEX_POINT ( 'NONE', #223 ) ;
#42 = ORIENTED_EDGE ( 'NONE', *, *, #62, .T. ) ;
#43 = CARTESIAN_POINT ( 'NONE',  ( 0.000000000000000000, 0.000000000000000000, 7.000000000000000000 ) ) ;
#44 = CC_DESIGN_APPROVAL ( #37, ( #250 ) ) ;
#45 =( NAMED_UNIT ( * ) PLANE_ANGLE_UNIT ( ) SI_UNIT ( $, .RADIAN. ) );
#46 = ORIENTED_EDGE ( 'NONE', *, *, #248, .T. ) ;
#47 = EDGE_CURVE ( 'NONE', #245, #168, #175, .T. ) ;
#48 =( NAMED_UNIT ( * ) SI_UNIT ( $, .STERADIAN. ) SOLID_ANGLE_UNIT ( ) );
#49 = PLANE ( 'NONE',  #32 ) ;
#50 = DIRECTION ( 'NONE',  ( -0.000000000000000000, -0.000000000000000000, -1.000000000000000000 ) ) ;
#51 = DIRECTION ( 'NONE',  ( 1.000000000000000000, 0.000000000000000000, 0.000000000000000000 ) ) ;
#52 = AXIS2_PLACEMENT_3D ( 'NONE', #104, #189, #7 ) ;
#53 = PRODUCT_RELATED_PRODUCT_CATEGORY ( 'detail', '', ( #156 ) ) ;
#54 = PERSON_AND_ORGANIZATION ( #153, #60 ) ;
#55 = AXIS2_PLACEMENT_3D ( 'NONE', #43, #125, #107 ) ;
#56 = AXIS2_PLACEMENT_3D ( 'NONE', #102, #83, #129 ) ;
#57 = COORDINATED_UNIVERSAL_TIME_OFFSET ( 1, 0, .AHEAD. ) ;
#58 = APPROVAL_STATUS ( 'not_yet_approved' ) ;
#59 = CALENDAR_DATE ( 2022, 7, 7 ) ;
#60 = ORGANIZATION ( 'NEURÈENÝ', 'NEURÈENÝ', '' ) ;
#61 = ORIENTED_EDGE ( 'NONE', *, *, #78, .F. ) ;
#62 = EDGE_CURVE ( 'NONE', #168, #245, #108, .T. ) ;
#63 = ORIENTED_EDGE ( 'NONE', *, *, #133, .F. ) ;
#64 = CARTESIAN_POINT ( 'NONE',  ( 0.000000000000000000, 0.000000000000000000, 7.000000000000000000 ) ) ;
#65 = DIRECTION ( 'NONE',  ( -0.000000000000000000, -0.000000000000000000, -1.000000000000000000 ) ) ;
#66 = FACE_OUTER_BOUND ( 'NONE', #141, .T. ) ;
#67 = FACE_OUTER_BOUND ( 'NONE', #183, .T. ) ;
#68 = PLANE ( 'NONE',  #71 ) ;
#69 = DIRECTION ( 'NONE',  ( 1.000000000000000000, 0.000000000000000000, -0.000000000000000000 ) ) ;
#70 = CARTESIAN_POINT ( 'NONE',  ( 0.000000000000000000, 0.000000000000000000, 7.000000000000000000 ) ) ;
#71 = AXIS2_PLACEMENT_3D ( 'NONE', #143, #149, #249 ) ;
#72 = DATE_AND_TIME ( #135, #96 ) ;
#73 = APPLICATION_PROTOCOL_DEFINITION ( 'international standard', 'config_control_design', 1994, #120 ) ;
#74 = AXIS2_PLACEMENT_3D ( 'NONE', #142, #150, #122 ) ;
#75 = CC_DESIGN_SECURITY_CLASSIFICATION ( #250, ( #145 ) ) ;
#76 = COORDINATED_UNIVERSAL_TIME_OFFSET ( 1, 0, .AHEAD. ) ;
#77 = UNCERTAINTY_MEASURE_WITH_UNIT (LENGTH_MEASURE( 1.000000000000000082E-05 ), #234, 'distance_accuracy_value', 'NONE');
#78 = EDGE_CURVE ( 'NONE', #240, #41, #80, .T. ) ;
#79 = VERTEX_POINT ( 'NONE', #106 ) ;
#80 = CIRCLE ( 'NONE', #131, 8.000000000000000000 ) ;
#81 = EDGE_LOOP ( 'NONE', ( #82, #203, #46, #140 ) ) ;
#82 = ORIENTED_EDGE ( 'NONE', *, *, #220, .F. ) ;
#83 = DIRECTION ( 'NONE',  ( 0.000000000000000000, 0.000000000000000000, 1.000000000000000000 ) ) ;
#84 = ORIENTED_EDGE ( 'NONE', *, *, #139, .T. ) ;
#85 = ADVANCED_FACE ( 'NONE', ( #23 ), #9, .T. ) ;
#86 = DIRECTION ( 'NONE',  ( 1.000000000000000000, 0.000000000000000000, -0.000000000000000000 ) ) ;
#87 = LINE ( 'NONE', #212, #159 ) ;
#88 = EDGE_LOOP ( 'NONE', ( #221, #61, #226, #42 ) ) ;
#89 = CARTESIAN_POINT ( 'NONE',  ( 8.000000000000000000, 9.797174393178825657E-16, 7.000000000000000000 ) ) ;
#90 = APPROVAL_ROLE ( '' ) ;
#91 = DIRECTION ( 'NONE',  ( 0.000000000000000000, 0.000000000000000000, 1.000000000000000000 ) ) ;
#92 = VECTOR ( 'NONE', #185, 1000.000000000000000 ) ;
#93 = APPROVAL_DATE_TIME ( #238, #37 ) ;
#94 = CC_DESIGN_PERSON_AND_ORGANIZATION_ASSIGNMENT ( #118, #236, ( #156 ) ) ;
#95 = PERSON_AND_ORGANIZATION ( #153, #60 ) ;
#96 = LOCAL_TIME ( 19, 8, 9.000000000000000000, #76 ) ;
#97 = EDGE_LOOP ( 'NONE', ( #127, #4 ) ) ;
#98 = CARTESIAN_POINT ( 'NONE',  ( 0.000000000000000000, 0.000000000000000000, 0.000000000000000000 ) ) ;
#99 = AXIS2_PLACEMENT_3D ( 'NONE', #2, #29, #247 ) ;
#100 = APPROVAL ( #16, 'NEURÈENÝ' ) ;
#101 = CIRCLE ( 'NONE', #33, 11.00000000000000000 ) ;
#102 = CARTESIAN_POINT ( 'NONE',  ( 0.000000000000000000, 0.000000000000000000, 7.000000000000000000 ) ) ;
#103 = ORIENTED_EDGE ( 'NONE', *, *, #133, .T. ) ;
#104 = CARTESIAN_POINT ( 'NONE',  ( 0.000000000000000000, 0.000000000000000000, 132.0000000000000000 ) ) ;
#105 = CARTESIAN_POINT ( 'NONE',  ( 11.00000000000000000, 1.347111479062088405E-15, 7.000000000000000000 ) ) ;
#106 = CARTESIAN_POINT ( 'NONE',  ( 11.00000000000000000, 1.347111479062088405E-15, 7.000000000000000000 ) ) ;
#107 = DIRECTION ( 'NONE',  ( 1.000000000000000000, 0.000000000000000000, 0.000000000000000000 ) ) ;
#108 = CIRCLE ( 'NONE', #26, 8.000000000000000000 ) ;
#109 = APPLICATION_CONTEXT ( 'configuration controlled 3d designs of mechanical parts and assemblies' ) ;
#110 = CARTESIAN_POINT ( 'NONE',  ( 0.000000000000000000, 0.000000000000000000, 132.0000000000000000 ) ) ;
#111 = DIRECTION ( 'NONE',  ( 1.000000000000000000, 0.000000000000000000, 0.000000000000000000 ) ) ;
#112 = COORDINATED_UNIVERSAL_TIME_OFFSET ( 1, 0, .AHEAD. ) ;
#113 = EDGE_CURVE ( 'NONE', #240, #168, #87, .T. ) ;
#114 = DATE_TIME_ROLE ( 'classification_date' ) ;
#115 = PERSON_AND_ORGANIZATION_ROLE ( 'creator' ) ;
#116 = APPROVAL_PERSON_ORGANIZATION ( #157, #19, #90 ) ;
#117 = EDGE_CURVE ( 'NONE', #41, #240, #233, .T. ) ;
#118 = PERSON_AND_ORGANIZATION ( #153, #60 ) ;
#119 = EDGE_CURVE ( 'NONE', #166, #202, #181, .T. ) ;
#120 = APPLICATION_CONTEXT ( 'configuration controlled 3d designs of mechanical parts and assemblies' ) ;
#121 = ORIENTED_EDGE ( 'NONE', *, *, #62, .F. ) ;
#122 = DIRECTION ( 'NONE',  ( -1.000000000000000000, 0.000000000000000000, 0.000000000000000000 ) ) ;
#123 = CYLINDRICAL_SURFACE ( 'NONE', #193, 11.00000000000000000 ) ;
#124 = ORIENTED_EDGE ( 'NONE', *, *, #117, .F. ) ;
#125 = DIRECTION ( 'NONE',  ( 0.000000000000000000, 0.000000000000000000, 1.000000000000000000 ) ) ;
#126 = CARTESIAN_POINT ( 'NONE',  ( -11.00000000000000000, 0.000000000000000000, 0.000000000000000000 ) ) ;
#127 = ORIENTED_EDGE ( 'NONE', *, *, #78, .T. ) ;
#128 = FACE_OUTER_BOUND ( 'NONE', #88, .T. ) ;
#129 = DIRECTION ( 'NONE',  ( 1.000000000000000000, 0.000000000000000000, 0.000000000000000000 ) ) ;
#130 = ORIENTED_EDGE ( 'NONE', *, *, #113, .F. ) ;
#131 = AXIS2_PLACEMENT_3D ( 'NONE', #192, #206, #51 ) ;
#132 = PRODUCT_DEFINITION ( 'NEZNÁMÝ', '', #145, #158 ) ;
#133 = EDGE_CURVE ( 'NONE', #202, #166, #101, .T. ) ;
#134 = LOCAL_TIME ( 19, 8, 9.000000000000000000, #35 ) ;
#135 = CALENDAR_DATE ( 2022, 7, 7 ) ;
#136 = CC_DESIGN_PERSON_AND_ORGANIZATION_ASSIGNMENT ( #172, #235, ( #145 ) ) ;
#137 = DATE_AND_TIME ( #59, #176 ) ;
#138 = AXIS2_PLACEMENT_3D ( 'NONE', #200, #91, #34 ) ;
#139 = EDGE_CURVE ( 'NONE', #79, #1, #213, .T. ) ;
#140 = ORIENTED_EDGE ( 'NONE', *, *, #119, .T. ) ;
#141 = EDGE_LOOP ( 'NONE', ( #5, #63 ) ) ;
#142 = CARTESIAN_POINT ( 'NONE',  ( 0.000000000000000000, 0.000000000000000000, 132.0000000000000000 ) ) ;
#143 = CARTESIAN_POINT ( 'NONE',  ( 0.000000000000000000, 0.000000000000000000, 7.000000000000000000 ) ) ;
#144 = DIRECTION ( 'NONE',  ( 0.000000000000000000, 0.000000000000000000, 1.000000000000000000 ) ) ;
#145 = PRODUCT_DEFINITION_FORMATION_WITH_SPECIFIED_SOURCE ( 'LIBOVOLNÝ', '', #156, .NOT_KNOWN. ) ;
#146 = FACE_BOUND ( 'NONE', #205, .T. ) ;
#147 = CARTESIAN_POINT ( 'NONE',  ( 0.000000000000000000, 0.000000000000000000, 132.0000000000000000 ) ) ;
#148 = EDGE_CURVE ( 'NONE', #41, #245, #204, .T. ) ;
#149 = DIRECTION ( 'NONE',  ( 0.000000000000000000, 0.000000000000000000, 1.000000000000000000 ) ) ;
#150 = DIRECTION ( 'NONE',  ( -0.000000000000000000, -0.000000000000000000, -1.000000000000000000 ) ) ;
#151 = DIRECTION ( 'NONE',  ( -0.000000000000000000, -0.000000000000000000, -1.000000000000000000 ) ) ;
#152 = AXIS2_PLACEMENT_3D ( 'NONE', #147, #210, #18 ) ;
#153 = PERSON ( 'NEURÈENÝ', 'NEURÈENÝ', 'NEURÈENÝ', ('NEURÈENÝ'), ('NEURÈENÝ'), ('NEURÈENÝ') ) ;
#154 = CC_DESIGN_APPROVAL ( #19, ( #145 ) ) ;
#155 = DATE_AND_TIME ( #218, #244 ) ;
#156 = PRODUCT ( 'cc47', 'cc47', '', ( #11 ) ) ;
#157 = PERSON_AND_ORGANIZATION ( #153, #60 ) ;
#158 = DESIGN_CONTEXT ( 'detailed design', #120, 'design' ) ;
#159 = VECTOR ( 'NONE', #170, 1000.000000000000000 ) ;
#160 = ORIENTED_EDGE ( 'NONE', *, *, #31, .T. ) ;
#161 = CC_DESIGN_DATE_AND_TIME_ASSIGNMENT ( #72, #178, ( #132 ) ) ;
#162 = ORIENTED_EDGE ( 'NONE', *, *, #139, .F. ) ;
#163 = CARTESIAN_POINT ( 'NONE',  ( -11.00000000000000000, 0.000000000000000000, 7.000000000000000000 ) ) ;
#164 = CC_DESIGN_PERSON_AND_ORGANIZATION_ASSIGNMENT ( #54, #215, ( #250 ) ) ;
#165 = CARTESIAN_POINT ( 'NONE',  ( -8.000000000000000000, 0.000000000000000000, 132.0000000000000000 ) ) ;
#166 = VERTEX_POINT ( 'NONE', #126 ) ;
#167 = FACE_OUTER_BOUND ( 'NONE', #81, .T. ) ;
#168 = VERTEX_POINT ( 'NONE', #194 ) ;
#169 = DIRECTION ( 'NONE',  ( 1.000000000000000000, 0.000000000000000000, 0.000000000000000000 ) ) ;
#170 = DIRECTION ( 'NONE',  ( -0.000000000000000000, -0.000000000000000000, -1.000000000000000000 ) ) ;
#171 = CARTESIAN_POINT ( 'NONE',  ( -11.00000000000000000, 0.000000000000000000, 7.000000000000000000 ) ) ;
#172 = PERSON_AND_ORGANIZATION ( #153, #60 ) ;
#173 = APPROVAL_DATE_TIME ( #137, #100 ) ;
#174 = SECURITY_CLASSIFICATION_LEVEL ( 'unclassified' ) ;
#175 = CIRCLE ( 'NONE', #55, 8.000000000000000000 ) ;
#176 = LOCAL_TIME ( 19, 8, 9.000000000000000000, #57 ) ;
#177 = SHAPE_DEFINITION_REPRESENTATION ( #225, #40 ) ;
#178 = DATE_TIME_ROLE ( 'creation_date' ) ;
#179 = CIRCLE ( 'NONE', #17, 11.00000000000000000 ) ;
#180 = ADVANCED_FACE ( 'NONE', ( #191 ), #28, .T. ) ;
#181 = CIRCLE ( 'NONE', #99, 11.00000000000000000 ) ;
#182 = VECTOR ( 'NONE', #65, 1000.000000000000000 ) ;
#183 = EDGE_LOOP ( 'NONE', ( #162, #243, #103, #25 ) ) ;
#184 = CYLINDRICAL_SURFACE ( 'NONE', #74, 8.000000000000000000 ) ;
#185 = DIRECTION ( 'NONE',  ( -0.000000000000000000, -0.000000000000000000, -1.000000000000000000 ) ) ;
#186 = ORIENTED_EDGE ( 'NONE', *, *, #47, .F. ) ;
#187 = DIRECTION ( 'NONE',  ( 0.000000000000000000, 0.000000000000000000, 1.000000000000000000 ) ) ;
#188 = CARTESIAN_POINT ( 'NONE',  ( 8.000000000000000000, 9.797174393178825657E-16, 132.0000000000000000 ) ) ;
#189 = DIRECTION ( 'NONE',  ( -0.000000000000000000, -0.000000000000000000, -1.000000000000000000 ) ) ;
#190 = CLOSED_SHELL ( 'NONE', ( #85, #232, #255, #254, #12, #38, #180 ) ) ;
#191 = FACE_OUTER_BOUND ( 'NONE', #97, .T. ) ;
#192 = CARTESIAN_POINT ( 'NONE',  ( 0.000000000000000000, 0.000000000000000000, 132.0000000000000000 ) ) ;
#193 = AXIS2_PLACEMENT_3D ( 'NONE', #70, #151, #227 ) ;
#194 = CARTESIAN_POINT ( 'NONE',  ( -8.000000000000000000, 0.000000000000000000, 7.000000000000000000 ) ) ;
#195 = APPROVAL_STATUS ( 'not_yet_approved' ) ;
#196 = APPROVAL_DATE_TIME ( #155, #19 ) ;
#197 = PERSON_AND_ORGANIZATION ( #153, #60 ) ;
#198 = CALENDAR_DATE ( 2022, 7, 7 ) ;
#199 = APPROVAL_PERSON_ORGANIZATION ( #197, #37, #14 ) ;
#200 = CARTESIAN_POINT ( 'NONE',  ( 0.000000000000000000, 0.000000000000000000, 0.000000000000000000 ) ) ;
#201 = AXIS2_PLACEMENT_3D ( 'NONE', #110, #230, #86 ) ;
#202 = VERTEX_POINT ( 'NONE', #207 ) ;
#203 = ORIENTED_EDGE ( 'NONE', *, *, #31, .F. ) ;
#204 = LINE ( 'NONE', #188, #92 ) ;
#205 = EDGE_LOOP ( 'NONE', ( #121, #186 ) ) ;
#206 = DIRECTION ( 'NONE',  ( 0.000000000000000000, 0.000000000000000000, 1.000000000000000000 ) ) ;
#207 = CARTESIAN_POINT ( 'NONE',  ( 11.00000000000000000, 1.347111479062088405E-15, 0.000000000000000000 ) ) ;
#208 = CARTESIAN_POINT ( 'NONE',  ( 0.000000000000000000, 0.000000000000000000, 7.000000000000000000 ) ) ;
#209 = MANIFOLD_SOLID_BREP ( 'Pøidat vysunutím3', #190 ) ;
#210 = DIRECTION ( 'NONE',  ( 0.000000000000000000, 0.000000000000000000, 1.000000000000000000 ) ) ;
#211 = DIRECTION ( 'NONE',  ( 0.000000000000000000, 0.000000000000000000, 1.000000000000000000 ) ) ;
#212 = CARTESIAN_POINT ( 'NONE',  ( -8.000000000000000000, 0.000000000000000000, 132.0000000000000000 ) ) ;
#213 = CIRCLE ( 'NONE', #56, 11.00000000000000000 ) ;
#214 = CARTESIAN_POINT ( 'NONE',  ( 0.000000000000000000, 0.000000000000000000, 0.000000000000000000 ) ) ;
#215 = PERSON_AND_ORGANIZATION_ROLE ( 'classification_officer' ) ;
#216 = CC_DESIGN_APPROVAL ( #100, ( #132 ) ) ;
#217 = PERSON_AND_ORGANIZATION_ROLE ( 'design_supplier' ) ;
#218 = CALENDAR_DATE ( 2022, 7, 7 ) ;
#219 = PERSON_AND_ORGANIZATION ( #153, #60 ) ;
#220 = EDGE_CURVE ( 'NONE', #79, #202, #21, .T. ) ;
#221 = ORIENTED_EDGE ( 'NONE', *, *, #148, .F. ) ;
#222 = ORIENTED_EDGE ( 'NONE', *, *, #148, .T. ) ;
#223 = CARTESIAN_POINT ( 'NONE',  ( 8.000000000000000000, 9.797174393178825657E-16, 132.0000000000000000 ) ) ;
#224 = APPROVAL_PERSON_ORGANIZATION ( #251, #100, #36 ) ;
#225 = PRODUCT_DEFINITION_SHAPE ( 'NONE', 'NONE',  #132 ) ;
#226 = ORIENTED_EDGE ( 'NONE', *, *, #113, .T. ) ;
#227 = DIRECTION ( 'NONE',  ( -1.000000000000000000, 0.000000000000000000, 0.000000000000000000 ) ) ;
#228 = EDGE_LOOP ( 'NONE', ( #160, #84 ) ) ;
#229 = CC_DESIGN_PERSON_AND_ORGANIZATION_ASSIGNMENT ( #219, #217, ( #145 ) ) ;
#230 = DIRECTION ( 'NONE',  ( 0.000000000000000000, 0.000000000000000000, 1.000000000000000000 ) ) ;
#231 = DIRECTION ( 'NONE',  ( 0.000000000000000000, 0.000000000000000000, 1.000000000000000000 ) ) ;
#232 = ADVANCED_FACE ( 'NONE', ( #67 ), #10, .T. ) ;
#233 = CIRCLE ( 'NONE', #152, 8.000000000000000000 ) ;
#234 =( LENGTH_UNIT ( ) NAMED_UNIT ( * ) SI_UNIT ( .MILLI., .METRE. ) );
#235 = PERSON_AND_ORGANIZATION_ROLE ( 'creator' ) ;
#236 = PERSON_AND_ORGANIZATION_ROLE ( 'design_owner' ) ;
#237 = CC_DESIGN_DATE_AND_TIME_ASSIGNMENT ( #252, #114, ( #250 ) ) ;
#238 = DATE_AND_TIME ( #198, #20 ) ;
#239 = AXIS2_PLACEMENT_3D ( 'NONE', #246, #50, #30 ) ;
#240 = VERTEX_POINT ( 'NONE', #165 ) ;
#241 = EDGE_LOOP ( 'NONE', ( #124, #222, #22, #130 ) ) ;
#242 = DIRECTION ( 'NONE',  ( -0.000000000000000000, -0.000000000000000000, -1.000000000000000000 ) ) ;
#243 = ORIENTED_EDGE ( 'NONE', *, *, #220, .T. ) ;
#244 = LOCAL_TIME ( 19, 8, 9.000000000000000000, #112 ) ;
#245 = VERTEX_POINT ( 'NONE', #89 ) ;
#246 = CARTESIAN_POINT ( 'NONE',  ( 0.000000000000000000, 0.000000000000000000, 7.000000000000000000 ) ) ;
#247 = DIRECTION ( 'NONE',  ( 1.000000000000000000, 0.000000000000000000, 0.000000000000000000 ) ) ;
#248 = EDGE_CURVE ( 'NONE', #1, #166, #3, .T. ) ;
#249 = DIRECTION ( 'NONE',  ( 1.000000000000000000, 0.000000000000000000, -0.000000000000000000 ) ) ;
#250 = SECURITY_CLASSIFICATION ( '', '', #174 ) ;
#251 = PERSON_AND_ORGANIZATION ( #153, #60 ) ;
#252 = DATE_AND_TIME ( #13, #134 ) ;
#253 = COORDINATED_UNIVERSAL_TIME_OFFSET ( 1, 0, .AHEAD. ) ;
#254 = ADVANCED_FACE ( 'NONE', ( #146, #6 ), #68, .T. ) ;
#255 = ADVANCED_FACE ( 'NONE', ( #167 ), #123, .T. ) ;
ENDSEC;
END-ISO-10303-21;
