ISO-10303-21;
HEADER;
FILE_DESCRIPTION (( 'STEP AP203' ),
    '1' );
FILE_NAME ('f478.STEP',
    '2022-07-07T17:29:36',
    ( '' ),
    ( '' ),
    'SwSTEP 2.0',
    'SolidWorks 2019',
    '' );
FILE_SCHEMA (( 'CONFIG_CONTROL_DESIGN' ));
ENDSEC;

DATA;
#1 = APPLICATION_CONTEXT ( 'configuration controlled 3d designs of mechanical parts and assemblies' ) ;
#2 = CIRCLE ( 'NONE', #115, 4.250000000000000000 ) ;
#3 = DATE_AND_TIME ( #17, #131 ) ;
#4 = CC_DESIGN_APPROVAL ( #215, ( #167 ) ) ;
#5 = VECTOR ( 'NONE', #100, 1000.000000000000000 ) ;
#6 = DIRECTION ( 'NONE',  ( 0.000000000000000000, 0.000000000000000000, 1.000000000000000000 ) ) ;
#7 = VERTEX_POINT ( 'NONE', #209 ) ;
#8 = CARTESIAN_POINT ( 'NONE',  ( -4.250000000000000000, 0.000000000000000000, 5.000000000000000000 ) ) ;
#9 = VERTEX_POINT ( 'NONE', #98 ) ;
#10 = AXIS2_PLACEMENT_3D ( 'NONE', #68, #22, #213 ) ;
#11 = PLANE ( 'NONE',  #126 ) ;
#12 = EDGE_LOOP ( 'NONE', ( #166, #231, #63, #226 ) ) ;
#13 = APPLICATION_CONTEXT ( 'configuration controlled 3d designs of mechanical parts and assemblies' ) ;
#14 = CYLINDRICAL_SURFACE ( 'NONE', #49, 4.250000000000000000 ) ;
#15 = FACE_OUTER_BOUND ( 'NONE', #18, .T. ) ;
#16 = ORIENTED_EDGE ( 'NONE', *, *, #111, .T. ) ;
#17 = CALENDAR_DATE ( 2022, 7, 7 ) ;
#18 = EDGE_LOOP ( 'NONE', ( #246, #42, #180, #171 ) ) ;
#19 = CIRCLE ( 'NONE', #150, 7.000000000000000000 ) ;
#20 = EDGE_CURVE ( 'NONE', #137, #163, #122, .T. ) ;
#21 = PERSON_AND_ORGANIZATION_ROLE ( 'design_owner' ) ;
#22 = DIRECTION ( 'NONE',  ( 0.000000000000000000, 0.000000000000000000, 1.000000000000000000 ) ) ;
#23 = APPROVAL_DATE_TIME ( #203, #215 ) ;
#24 = PLANE ( 'NONE',  #218 ) ;
#25 = ORIENTED_EDGE ( 'NONE', *, *, #20, .F. ) ;
#26 = DIRECTION ( 'NONE',  ( -0.000000000000000000, -0.000000000000000000, -1.000000000000000000 ) ) ;
#27 = CARTESIAN_POINT ( 'NONE',  ( 0.000000000000000000, 0.000000000000000000, 505.0000000000000000 ) ) ;
#28 = EDGE_LOOP ( 'NONE', ( #83, #160 ) ) ;
#29 = AXIS2_PLACEMENT_3D ( 'NONE', #82, #124, #239 ) ;
#30 = APPROVAL_ROLE ( '' ) ;
#31 = LINE ( 'NONE', #182, #152 ) ;
#32 = EDGE_LOOP ( 'NONE', ( #121, #25 ) ) ;
#33 = ORIENTED_EDGE ( 'NONE', *, *, #217, .F. ) ;
#34 = CC_DESIGN_PERSON_AND_ORGANIZATION_ASSIGNMENT ( #172, #106, ( #235 ) ) ;
#35 = APPROVAL_DATE_TIME ( #3, #224 ) ;
#36 = COORDINATED_UNIVERSAL_TIME_OFFSET ( 1, 0, .AHEAD. ) ;
#37 = ADVANCED_FACE ( 'NONE', ( #229 ), #50, .T. ) ;
#38 =( GEOMETRIC_REPRESENTATION_CONTEXT ( 3 ) GLOBAL_UNCERTAINTY_ASSIGNED_CONTEXT ( ( #253 ) ) GLOBAL_UNIT_ASSIGNED_CONTEXT ( ( #81, #206, #247 ) ) REPRESENTATION_CONTEXT ( 'NONE', 'WORKASPACE' ) );
#39 = MANIFOLD_SOLID_BREP ( 'Pøidat vysunutím3', #208 ) ;
#40 = CYLINDRICAL_SURFACE ( 'NONE', #89, 7.000000000000000000 ) ;
#41 = DIRECTION ( 'NONE',  ( 0.000000000000000000, 0.000000000000000000, 1.000000000000000000 ) ) ;
#42 = ORIENTED_EDGE ( 'NONE', *, *, #153, .T. ) ;
#43 = DATE_AND_TIME ( #138, #77 ) ;
#44 = CARTESIAN_POINT ( 'NONE',  ( 0.000000000000000000, 0.000000000000000000, 5.000000000000000000 ) ) ;
#45 = ORIENTED_EDGE ( 'NONE', *, *, #183, .F. ) ;
#46 = APPROVAL_PERSON_ORGANIZATION ( #55, #107, #88 ) ;
#47 = LINE ( 'NONE', #79, #130 ) ;
#48 = CARTESIAN_POINT ( 'NONE',  ( 4.250000000000000000, 5.204748896376250699E-16, 5.000000000000000000 ) ) ;
#49 = AXIS2_PLACEMENT_3D ( 'NONE', #59, #221, #164 ) ;
#50 = CYLINDRICAL_SURFACE ( 'NONE', #170, 4.250000000000000000 ) ;
#51 = EDGE_LOOP ( 'NONE', ( #140, #103 ) ) ;
#52 = DESIGN_CONTEXT ( 'detailed design', #13, 'design' ) ;
#53 = PERSON_AND_ORGANIZATION ( #211, #184 ) ;
#54 = SECURITY_CLASSIFICATION_LEVEL ( 'unclassified' ) ;
#55 = PERSON_AND_ORGANIZATION ( #211, #184 ) ;
#56 = CC_DESIGN_PERSON_AND_ORGANIZATION_ASSIGNMENT ( #93, #161, ( #167 ) ) ;
#57 = LOCAL_TIME ( 19, 29, 36.00000000000000000, #36 ) ;
#58 = CIRCLE ( 'NONE', #238, 4.250000000000000000 ) ;
#59 = CARTESIAN_POINT ( 'NONE',  ( 0.000000000000000000, 0.000000000000000000, 505.0000000000000000 ) ) ;
#60 = LINE ( 'NONE', #248, #5 ) ;
#61 = APPROVAL_STATUS ( 'not_yet_approved' ) ;
#62 = DIRECTION ( 'NONE',  ( 1.000000000000000000, 0.000000000000000000, 0.000000000000000000 ) ) ;
#63 = ORIENTED_EDGE ( 'NONE', *, *, #76, .T. ) ;
#64 = EDGE_CURVE ( 'NONE', #7, #85, #173, .T. ) ;
#65 = PERSON_AND_ORGANIZATION ( #211, #184 ) ;
#66 = FACE_OUTER_BOUND ( 'NONE', #51, .T. ) ;
#67 = ORIENTED_EDGE ( 'NONE', *, *, #217, .T. ) ;
#68 = CARTESIAN_POINT ( 'NONE',  ( 0.000000000000000000, 0.000000000000000000, 5.000000000000000000 ) ) ;
#69 = DIRECTION ( 'NONE',  ( 0.000000000000000000, 0.000000000000000000, 1.000000000000000000 ) ) ;
#70 = CARTESIAN_POINT ( 'NONE',  ( 0.000000000000000000, 0.000000000000000000, 0.000000000000000000 ) ) ;
#71 = AXIS2_PLACEMENT_3D ( 'NONE', #44, #245, #207 ) ;
#72 = COORDINATED_UNIVERSAL_TIME_OFFSET ( 1, 0, .AHEAD. ) ;
#73 = DATE_TIME_ROLE ( 'classification_date' ) ;
#74 = APPROVAL_PERSON_ORGANIZATION ( #65, #215, #240 ) ;
#75 = EDGE_CURVE ( 'NONE', #85, #7, #216, .T. ) ;
#76 = EDGE_CURVE ( 'NONE', #9, #7, #60, .T. ) ;
#77 = LOCAL_TIME ( 19, 29, 36.00000000000000000, #181 ) ;
#78 = VECTOR ( 'NONE', #26, 1000.000000000000000 ) ;
#79 = CARTESIAN_POINT ( 'NONE',  ( 4.250000000000000000, 5.204748896376250699E-16, 505.0000000000000000 ) ) ;
#80 = DIRECTION ( 'NONE',  ( 1.000000000000000000, 0.000000000000000000, 0.000000000000000000 ) ) ;
#81 =( LENGTH_UNIT ( ) NAMED_UNIT ( * ) SI_UNIT ( .MILLI., .METRE. ) );
#82 = CARTESIAN_POINT ( 'NONE',  ( 0.000000000000000000, 0.000000000000000000, 5.000000000000000000 ) ) ;
#83 = ORIENTED_EDGE ( 'NONE', *, *, #183, .T. ) ;
#84 = CARTESIAN_POINT ( 'NONE',  ( 4.250000000000000000, 5.204748896376250699E-16, 505.0000000000000000 ) ) ;
#85 = VERTEX_POINT ( 'NONE', #165 ) ;
#86 = DIRECTION ( 'NONE',  ( 1.000000000000000000, 0.000000000000000000, 0.000000000000000000 ) ) ;
#87 = EDGE_LOOP ( 'NONE', ( #214, #146, #191, #33 ) ) ;
#88 = APPROVAL_ROLE ( '' ) ;
#89 = AXIS2_PLACEMENT_3D ( 'NONE', #162, #114, #141 ) ;
#90 = AXIS2_PLACEMENT_3D ( 'NONE', #94, #204, #62 ) ;
#91 = APPLICATION_PROTOCOL_DEFINITION ( 'international standard', 'config_control_design', 1994, #13 ) ;
#92 = FACE_BOUND ( 'NONE', #32, .T. ) ;
#93 = PERSON_AND_ORGANIZATION ( #211, #184 ) ;
#94 = CARTESIAN_POINT ( 'NONE',  ( 0.000000000000000000, 0.000000000000000000, 0.000000000000000000 ) ) ;
#95 = ORIENTED_EDGE ( 'NONE', *, *, #242, .T. ) ;
#96 = DIRECTION ( 'NONE',  ( -0.000000000000000000, -0.000000000000000000, -1.000000000000000000 ) ) ;
#97 = DIRECTION ( 'NONE',  ( -0.000000000000000000, -0.000000000000000000, -1.000000000000000000 ) ) ;
#98 = CARTESIAN_POINT ( 'NONE',  ( -7.000000000000000000, 0.000000000000000000, 5.000000000000000000 ) ) ;
#99 = CALENDAR_DATE ( 2022, 7, 7 ) ;
#100 = DIRECTION ( 'NONE',  ( -0.000000000000000000, -0.000000000000000000, -1.000000000000000000 ) ) ;
#101 = VERTEX_POINT ( 'NONE', #133 ) ;
#102 = EDGE_CURVE ( 'NONE', #9, #101, #195, .T. ) ;
#103 = ORIENTED_EDGE ( 'NONE', *, *, #75, .F. ) ;
#104 = APPROVAL_DATE_TIME ( #232, #107 ) ;
#105 = CC_DESIGN_APPROVAL ( #107, ( #210 ) ) ;
#106 = PERSON_AND_ORGANIZATION_ROLE ( 'creator' ) ;
#107 = APPROVAL ( #254, 'NEURÈENÝ' ) ;
#108 = CALENDAR_DATE ( 2022, 7, 7 ) ;
#109 = COORDINATED_UNIVERSAL_TIME_OFFSET ( 1, 0, .AHEAD. ) ;
#110 = CC_DESIGN_DATE_AND_TIME_ASSIGNMENT ( #193, #73, ( #210 ) ) ;
#111 = EDGE_CURVE ( 'NONE', #163, #137, #237, .T. ) ;
#112 = APPROVAL_PERSON_ORGANIZATION ( #185, #224, #30 ) ;
#113 = DIRECTION ( 'NONE',  ( 1.000000000000000000, 0.000000000000000000, 0.000000000000000000 ) ) ;
#114 = DIRECTION ( 'NONE',  ( -0.000000000000000000, -0.000000000000000000, -1.000000000000000000 ) ) ;
#115 = AXIS2_PLACEMENT_3D ( 'NONE', #27, #189, #251 ) ;
#116 = PERSON_AND_ORGANIZATION ( #211, #184 ) ;
#117 = FACE_OUTER_BOUND ( 'NONE', #243, .T. ) ;
#118 = VERTEX_POINT ( 'NONE', #168 ) ;
#119 = LINE ( 'NONE', #188, #78 ) ;
#120 = DIRECTION ( 'NONE',  ( 1.000000000000000000, 0.000000000000000000, -0.000000000000000000 ) ) ;
#121 = ORIENTED_EDGE ( 'NONE', *, *, #111, .F. ) ;
#122 = CIRCLE ( 'NONE', #144, 4.250000000000000000 ) ;
#123 = DATE_TIME_ROLE ( 'creation_date' ) ;
#124 = DIRECTION ( 'NONE',  ( -0.000000000000000000, -0.000000000000000000, -1.000000000000000000 ) ) ;
#125 = CARTESIAN_POINT ( 'NONE',  ( 0.000000000000000000, 0.000000000000000000, 505.0000000000000000 ) ) ;
#126 = AXIS2_PLACEMENT_3D ( 'NONE', #159, #241, #222 ) ;
#127 = VERTEX_POINT ( 'NONE', #84 ) ;
#128 = PERSON_AND_ORGANIZATION_ROLE ( 'classification_officer' ) ;
#129 = PRODUCT ( 'f478', 'f478', '', ( #227 ) ) ;
#130 = VECTOR ( 'NONE', #96, 1000.000000000000000 ) ;
#131 = LOCAL_TIME ( 19, 29, 36.00000000000000000, #109 ) ;
#132 = CARTESIAN_POINT ( 'NONE',  ( 0.000000000000000000, 0.000000000000000000, 5.000000000000000000 ) ) ;
#133 = CARTESIAN_POINT ( 'NONE',  ( 7.000000000000000000, 8.572527594031473190E-16, 5.000000000000000000 ) ) ;
#134 = EDGE_CURVE ( 'NONE', #127, #118, #2, .T. ) ;
#135 = COORDINATED_UNIVERSAL_TIME_OFFSET ( 1, 0, .AHEAD. ) ;
#136 = FACE_OUTER_BOUND ( 'NONE', #12, .T. ) ;
#137 = VERTEX_POINT ( 'NONE', #48 ) ;
#138 = CALENDAR_DATE ( 2022, 7, 7 ) ;
#139 = PLANE ( 'NONE',  #156 ) ;
#140 = ORIENTED_EDGE ( 'NONE', *, *, #64, .F. ) ;
#141 = DIRECTION ( 'NONE',  ( -1.000000000000000000, 0.000000000000000000, 0.000000000000000000 ) ) ;
#142 = CARTESIAN_POINT ( 'NONE',  ( 0.000000000000000000, 0.000000000000000000, 5.000000000000000000 ) ) ;
#143 = ADVANCED_BREP_SHAPE_REPRESENTATION ( 'f478', ( #39, #199 ), #38 ) ;
#144 = AXIS2_PLACEMENT_3D ( 'NONE', #142, #187, #249 ) ;
#145 = DIRECTION ( 'NONE',  ( 0.000000000000000000, 0.000000000000000000, 1.000000000000000000 ) ) ;
#146 = ORIENTED_EDGE ( 'NONE', *, *, #250, .T. ) ;
#147 = CC_DESIGN_PERSON_AND_ORGANIZATION_ASSIGNMENT ( #116, #21, ( #129 ) ) ;
#148 = PRODUCT_DEFINITION_SHAPE ( 'NONE', 'NONE',  #167 ) ;
#149 = CALENDAR_DATE ( 2022, 7, 7 ) ;
#150 = AXIS2_PLACEMENT_3D ( 'NONE', #132, #244, #158 ) ;
#151 = PERSON_AND_ORGANIZATION_ROLE ( 'design_supplier' ) ;
#152 = VECTOR ( 'NONE', #97, 1000.000000000000000 ) ;
#153 = EDGE_CURVE ( 'NONE', #101, #85, #31, .T. ) ;
#154 = CC_DESIGN_APPROVAL ( #224, ( #235 ) ) ;
#155 = LOCAL_TIME ( 19, 29, 36.00000000000000000, #72 ) ;
#156 = AXIS2_PLACEMENT_3D ( 'NONE', #225, #41, #120 ) ;
#157 = CC_DESIGN_DATE_AND_TIME_ASSIGNMENT ( #43, #123, ( #167 ) ) ;
#158 = DIRECTION ( 'NONE',  ( 1.000000000000000000, 0.000000000000000000, 0.000000000000000000 ) ) ;
#159 = CARTESIAN_POINT ( 'NONE',  ( 0.000000000000000000, 0.000000000000000000, 505.0000000000000000 ) ) ;
#160 = ORIENTED_EDGE ( 'NONE', *, *, #134, .T. ) ;
#161 = PERSON_AND_ORGANIZATION_ROLE ( 'creator' ) ;
#162 = CARTESIAN_POINT ( 'NONE',  ( 0.000000000000000000, 0.000000000000000000, 5.000000000000000000 ) ) ;
#163 = VERTEX_POINT ( 'NONE', #8 ) ;
#164 = DIRECTION ( 'NONE',  ( -1.000000000000000000, 0.000000000000000000, 0.000000000000000000 ) ) ;
#165 = CARTESIAN_POINT ( 'NONE',  ( 7.000000000000000000, 8.572527594031473190E-16, 0.000000000000000000 ) ) ;
#166 = ORIENTED_EDGE ( 'NONE', *, *, #153, .F. ) ;
#167 = PRODUCT_DEFINITION ( 'NEZNÁMÝ', '', #235, #52 ) ;
#168 = CARTESIAN_POINT ( 'NONE',  ( -4.250000000000000000, 0.000000000000000000, 505.0000000000000000 ) ) ;
#169 = DIRECTION ( 'NONE',  ( -0.000000000000000000, -0.000000000000000000, -1.000000000000000000 ) ) ;
#170 = AXIS2_PLACEMENT_3D ( 'NONE', #125, #169, #252 ) ;
#171 = ORIENTED_EDGE ( 'NONE', *, *, #76, .F. ) ;
#172 = PERSON_AND_ORGANIZATION ( #211, #184 ) ;
#173 = CIRCLE ( 'NONE', #198, 7.000000000000000000 ) ;
#174 = CC_DESIGN_SECURITY_CLASSIFICATION ( #210, ( #235 ) ) ;
#175 = ADVANCED_FACE ( 'NONE', ( #15 ), #201, .T. ) ;
#176 = ADVANCED_FACE ( 'NONE', ( #92, #117 ), #24, .T. ) ;
#177 = ADVANCED_FACE ( 'NONE', ( #136 ), #40, .T. ) ;
#178 = DIRECTION ( 'NONE',  ( 0.000000000000000000, 0.000000000000000000, 1.000000000000000000 ) ) ;
#179 = CARTESIAN_POINT ( 'NONE',  ( 0.000000000000000000, 0.000000000000000000, 505.0000000000000000 ) ) ;
#180 = ORIENTED_EDGE ( 'NONE', *, *, #75, .T. ) ;
#181 = COORDINATED_UNIVERSAL_TIME_OFFSET ( 1, 0, .AHEAD. ) ;
#182 = CARTESIAN_POINT ( 'NONE',  ( 7.000000000000000000, 8.572527594031473190E-16, 5.000000000000000000 ) ) ;
#183 = EDGE_CURVE ( 'NONE', #118, #127, #58, .T. ) ;
#184 = ORGANIZATION ( 'NEURÈENÝ', 'NEURÈENÝ', '' ) ;
#185 = PERSON_AND_ORGANIZATION ( #211, #184 ) ;
#186 = FACE_OUTER_BOUND ( 'NONE', #205, .T. ) ;
#187 = DIRECTION ( 'NONE',  ( 0.000000000000000000, 0.000000000000000000, 1.000000000000000000 ) ) ;
#188 = CARTESIAN_POINT ( 'NONE',  ( -4.250000000000000000, 0.000000000000000000, 505.0000000000000000 ) ) ;
#189 = DIRECTION ( 'NONE',  ( 0.000000000000000000, 0.000000000000000000, 1.000000000000000000 ) ) ;
#190 = ORIENTED_EDGE ( 'NONE', *, *, #102, .T. ) ;
#191 = ORIENTED_EDGE ( 'NONE', *, *, #20, .T. ) ;
#192 = CC_DESIGN_PERSON_AND_ORGANIZATION_ASSIGNMENT ( #53, #128, ( #210 ) ) ;
#193 = DATE_AND_TIME ( #149, #155 ) ;
#194 = LOCAL_TIME ( 19, 29, 36.00000000000000000, #135 ) ;
#195 = CIRCLE ( 'NONE', #71, 7.000000000000000000 ) ;
#196 = ADVANCED_FACE ( 'NONE', ( #228 ), #11, .T. ) ;
#197 = ADVANCED_FACE ( 'NONE', ( #66 ), #139, .F. ) ;
#198 = AXIS2_PLACEMENT_3D ( 'NONE', #70, #69, #86 ) ;
#199 = AXIS2_PLACEMENT_3D ( 'NONE', #219, #178, #113 ) ;
#200 = APPLICATION_PROTOCOL_DEFINITION ( 'international standard', 'config_control_design', 1994, #1 ) ;
#201 = CYLINDRICAL_SURFACE ( 'NONE', #29, 7.000000000000000000 ) ;
#202 = ADVANCED_FACE ( 'NONE', ( #186 ), #14, .T. ) ;
#203 = DATE_AND_TIME ( #99, #194 ) ;
#204 = DIRECTION ( 'NONE',  ( 0.000000000000000000, 0.000000000000000000, 1.000000000000000000 ) ) ;
#205 = EDGE_LOOP ( 'NONE', ( #223, #45, #67, #16 ) ) ;
#206 =( NAMED_UNIT ( * ) PLANE_ANGLE_UNIT ( ) SI_UNIT ( $, .RADIAN. ) );
#207 = DIRECTION ( 'NONE',  ( 1.000000000000000000, 0.000000000000000000, 0.000000000000000000 ) ) ;
#208 = CLOSED_SHELL ( 'NONE', ( #37, #175, #177, #176, #197, #202, #196 ) ) ;
#209 = CARTESIAN_POINT ( 'NONE',  ( -7.000000000000000000, 0.000000000000000000, 0.000000000000000000 ) ) ;
#210 = SECURITY_CLASSIFICATION ( '', '', #54 ) ;
#211 = PERSON ( 'NEURÈENÝ', 'NEURÈENÝ', 'NEURÈENÝ', ('NEURÈENÝ'), ('NEURÈENÝ'), ('NEURÈENÝ') ) ;
#212 = APPROVAL_STATUS ( 'not_yet_approved' ) ;
#213 = DIRECTION ( 'NONE',  ( 1.000000000000000000, 0.000000000000000000, 0.000000000000000000 ) ) ;
#214 = ORIENTED_EDGE ( 'NONE', *, *, #134, .F. ) ;
#215 = APPROVAL ( #61, 'NEURÈENÝ' ) ;
#216 = CIRCLE ( 'NONE', #90, 7.000000000000000000 ) ;
#217 = EDGE_CURVE ( 'NONE', #118, #163, #119, .T. ) ;
#218 = AXIS2_PLACEMENT_3D ( 'NONE', #220, #145, #230 ) ;
#219 = CARTESIAN_POINT ( 'NONE',  ( 0.000000000000000000, 0.000000000000000000, 0.000000000000000000 ) ) ;
#220 = CARTESIAN_POINT ( 'NONE',  ( 0.000000000000000000, 0.000000000000000000, 5.000000000000000000 ) ) ;
#221 = DIRECTION ( 'NONE',  ( -0.000000000000000000, -0.000000000000000000, -1.000000000000000000 ) ) ;
#222 = DIRECTION ( 'NONE',  ( 1.000000000000000000, 0.000000000000000000, -0.000000000000000000 ) ) ;
#223 = ORIENTED_EDGE ( 'NONE', *, *, #250, .F. ) ;
#224 = APPROVAL ( #212, 'NEURÈENÝ' ) ;
#225 = CARTESIAN_POINT ( 'NONE',  ( 0.000000000000000000, 0.000000000000000000, 0.000000000000000000 ) ) ;
#226 = ORIENTED_EDGE ( 'NONE', *, *, #64, .T. ) ;
#227 = MECHANICAL_CONTEXT ( 'NONE', #1, 'mechanical' ) ;
#228 = FACE_OUTER_BOUND ( 'NONE', #28, .T. ) ;
#229 = FACE_OUTER_BOUND ( 'NONE', #87, .T. ) ;
#230 = DIRECTION ( 'NONE',  ( 1.000000000000000000, 0.000000000000000000, -0.000000000000000000 ) ) ;
#231 = ORIENTED_EDGE ( 'NONE', *, *, #102, .F. ) ;
#232 = DATE_AND_TIME ( #108, #57 ) ;
#233 = SHAPE_DEFINITION_REPRESENTATION ( #148, #143 ) ;
#234 = PERSON_AND_ORGANIZATION ( #211, #184 ) ;
#235 = PRODUCT_DEFINITION_FORMATION_WITH_SPECIFIED_SOURCE ( 'LIBOVOLNÝ', '', #129, .NOT_KNOWN. ) ;
#236 = CC_DESIGN_PERSON_AND_ORGANIZATION_ASSIGNMENT ( #234, #151, ( #235 ) ) ;
#237 = CIRCLE ( 'NONE', #10, 4.250000000000000000 ) ;
#238 = AXIS2_PLACEMENT_3D ( 'NONE', #179, #6, #80 ) ;
#239 = DIRECTION ( 'NONE',  ( -1.000000000000000000, 0.000000000000000000, 0.000000000000000000 ) ) ;
#240 = APPROVAL_ROLE ( '' ) ;
#241 = DIRECTION ( 'NONE',  ( 0.000000000000000000, 0.000000000000000000, 1.000000000000000000 ) ) ;
#242 = EDGE_CURVE ( 'NONE', #101, #9, #19, .T. ) ;
#243 = EDGE_LOOP ( 'NONE', ( #190, #95 ) ) ;
#244 = DIRECTION ( 'NONE',  ( 0.000000000000000000, 0.000000000000000000, 1.000000000000000000 ) ) ;
#245 = DIRECTION ( 'NONE',  ( 0.000000000000000000, 0.000000000000000000, 1.000000000000000000 ) ) ;
#246 = ORIENTED_EDGE ( 'NONE', *, *, #242, .F. ) ;
#247 =( NAMED_UNIT ( * ) SI_UNIT ( $, .STERADIAN. ) SOLID_ANGLE_UNIT ( ) );
#248 = CARTESIAN_POINT ( 'NONE',  ( -7.000000000000000000, 0.000000000000000000, 5.000000000000000000 ) ) ;
#249 = DIRECTION ( 'NONE',  ( 1.000000000000000000, 0.000000000000000000, 0.000000000000000000 ) ) ;
#250 = EDGE_CURVE ( 'NONE', #127, #137, #47, .T. ) ;
#251 = DIRECTION ( 'NONE',  ( 1.000000000000000000, 0.000000000000000000, 0.000000000000000000 ) ) ;
#252 = DIRECTION ( 'NONE',  ( -1.000000000000000000, 0.000000000000000000, 0.000000000000000000 ) ) ;
#253 = UNCERTAINTY_MEASURE_WITH_UNIT (LENGTH_MEASURE( 1.000000000000000082E-05 ), #81, 'distance_accuracy_value', 'NONE');
#254 = APPROVAL_STATUS ( 'not_yet_approved' ) ;
#255 = PRODUCT_RELATED_PRODUCT_CATEGORY ( 'detail', '', ( #129 ) ) ;
ENDSEC;
END-ISO-10303-21;
