ISO-10303-21;
HEADER;
FILE_DESCRIPTION (( 'STEP AP203' ),
    '1' );
FILE_NAME ('4736.STEP',
    '2022-07-07T17:22:09',
    ( '' ),
    ( '' ),
    'SwSTEP 2.0',
    'SolidWorks 2019',
    '' );
FILE_SCHEMA (( 'CONFIG_CONTROL_DESIGN' ));
ENDSEC;

DATA;
#1 = AXIS2_PLACEMENT_3D ( 'NONE', #163, #121, #202 ) ;
#2 = CARTESIAN_POINT ( 'NONE',  ( 0.000000000000000000, 0.000000000000000000, 0.000000000000000000 ) ) ;
#3 = PERSON_AND_ORGANIZATION_ROLE ( 'classification_officer' ) ;
#4 = CARTESIAN_POINT ( 'NONE',  ( -5.500000000000000000, 0.000000000000000000, 405.0000000000000000 ) ) ;
#5 = PERSON_AND_ORGANIZATION_ROLE ( 'creator' ) ;
#6 = CARTESIAN_POINT ( 'NONE',  ( 0.000000000000000000, 0.000000000000000000, 5.000000000000000000 ) ) ;
#7 = ADVANCED_FACE ( 'NONE', ( #78 ), #164, .T. ) ;
#8 = APPROVAL_ROLE ( '' ) ;
#9 = CARTESIAN_POINT ( 'NONE',  ( 0.000000000000000000, 0.000000000000000000, 0.000000000000000000 ) ) ;
#10 = PLANE ( 'NONE',  #83 ) ;
#11 =( NAMED_UNIT ( * ) PLANE_ANGLE_UNIT ( ) SI_UNIT ( $, .RADIAN. ) );
#12 = ORIENTED_EDGE ( 'NONE', *, *, #154, .T. ) ;
#13 = PRODUCT_DEFINITION_SHAPE ( 'NONE', 'NONE',  #189 ) ;
#14 = EDGE_LOOP ( 'NONE', ( #76, #114, #203, #142 ) ) ;
#15 = EDGE_LOOP ( 'NONE', ( #145, #32 ) ) ;
#16 = APPROVAL_ROLE ( '' ) ;
#17 = CARTESIAN_POINT ( 'NONE',  ( 8.000000000000000000, 9.797174393178825657E-16, 5.000000000000000000 ) ) ;
#18 = ORGANIZATION ( 'NEURÈENÝ', 'NEURÈENÝ', '' ) ;
#19 = APPLICATION_CONTEXT ( 'configuration controlled 3d designs of mechanical parts and assemblies' ) ;
#20 = CARTESIAN_POINT ( 'NONE',  ( 0.000000000000000000, 0.000000000000000000, 0.000000000000000000 ) ) ;
#21 = SHAPE_DEFINITION_REPRESENTATION ( #13, #223 ) ;
#22 = CARTESIAN_POINT ( 'NONE',  ( 0.000000000000000000, 0.000000000000000000, 5.000000000000000000 ) ) ;
#23 = PERSON_AND_ORGANIZATION ( #252, #18 ) ;
#24 = VECTOR ( 'NONE', #89, 1000.000000000000000 ) ;
#25 = DIRECTION ( 'NONE',  ( -1.000000000000000000, 0.000000000000000000, 0.000000000000000000 ) ) ;
#26 = DIRECTION ( 'NONE',  ( 0.000000000000000000, 0.000000000000000000, 1.000000000000000000 ) ) ;
#27 = DIRECTION ( 'NONE',  ( 0.000000000000000000, 0.000000000000000000, 1.000000000000000000 ) ) ;
#28 = DIRECTION ( 'NONE',  ( -0.000000000000000000, -0.000000000000000000, -1.000000000000000000 ) ) ;
#29 = EDGE_CURVE ( 'NONE', #244, #166, #213, .T. ) ;
#30 =( LENGTH_UNIT ( ) NAMED_UNIT ( * ) SI_UNIT ( .MILLI., .METRE. ) );
#31 = ORIENTED_EDGE ( 'NONE', *, *, #251, .F. ) ;
#32 = ORIENTED_EDGE ( 'NONE', *, *, #143, .T. ) ;
#33 = APPROVAL ( #77, 'NEURÈENÝ' ) ;
#34 = APPROVAL_STATUS ( 'not_yet_approved' ) ;
#35 = ORIENTED_EDGE ( 'NONE', *, *, #29, .T. ) ;
#36 = AXIS2_PLACEMENT_3D ( 'NONE', #69, #155, #92 ) ;
#37 = CC_DESIGN_PERSON_AND_ORGANIZATION_ASSIGNMENT ( #63, #98, ( #93 ) ) ;
#38 = AXIS2_PLACEMENT_3D ( 'NONE', #85, #171, #46 ) ;
#39 = CARTESIAN_POINT ( 'NONE',  ( 8.000000000000000000, 9.797174393178825657E-16, 5.000000000000000000 ) ) ;
#40 = DATE_AND_TIME ( #42, #156 ) ;
#41 = DIRECTION ( 'NONE',  ( -1.000000000000000000, 0.000000000000000000, 0.000000000000000000 ) ) ;
#42 = CALENDAR_DATE ( 2022, 7, 7 ) ;
#43 = CARTESIAN_POINT ( 'NONE',  ( 5.500000000000000000, 6.735557395310442023E-16, 5.000000000000000000 ) ) ;
#44 = PERSON_AND_ORGANIZATION ( #252, #18 ) ;
#45 = APPROVAL_PERSON_ORGANIZATION ( #226, #33, #16 ) ;
#46 = DIRECTION ( 'NONE',  ( 1.000000000000000000, 0.000000000000000000, 0.000000000000000000 ) ) ;
#47 = ORIENTED_EDGE ( 'NONE', *, *, #79, .T. ) ;
#48 = COORDINATED_UNIVERSAL_TIME_OFFSET ( 1, 0, .AHEAD. ) ;
#49 = VERTEX_POINT ( 'NONE', #17 ) ;
#50 = LOCAL_TIME ( 19, 22, 9.000000000000000000, #87 ) ;
#51 = ORIENTED_EDGE ( 'NONE', *, *, #88, .F. ) ;
#52 = DIRECTION ( 'NONE',  ( 0.000000000000000000, 0.000000000000000000, 1.000000000000000000 ) ) ;
#53 = ORIENTED_EDGE ( 'NONE', *, *, #199, .T. ) ;
#54 = DIRECTION ( 'NONE',  ( 1.000000000000000000, 0.000000000000000000, -0.000000000000000000 ) ) ;
#55 = CARTESIAN_POINT ( 'NONE',  ( -8.000000000000000000, 0.000000000000000000, 0.000000000000000000 ) ) ;
#56 = CARTESIAN_POINT ( 'NONE',  ( 5.500000000000000000, 6.735557395310442023E-16, 405.0000000000000000 ) ) ;
#57 = DIRECTION ( 'NONE',  ( -0.000000000000000000, -0.000000000000000000, -1.000000000000000000 ) ) ;
#58 = CC_DESIGN_APPROVAL ( #95, ( #117 ) ) ;
#59 = DATE_AND_TIME ( #75, #237 ) ;
#60 = ORIENTED_EDGE ( 'NONE', *, *, #88, .T. ) ;
#61 =( NAMED_UNIT ( * ) SI_UNIT ( $, .STERADIAN. ) SOLID_ANGLE_UNIT ( ) );
#62 = CIRCLE ( 'NONE', #209, 8.000000000000000000 ) ;
#63 = PERSON_AND_ORGANIZATION ( #252, #18 ) ;
#64 = EDGE_LOOP ( 'NONE', ( #99, #186 ) ) ;
#65 = APPLICATION_PROTOCOL_DEFINITION ( 'international standard', 'config_control_design', 1994, #255 ) ;
#66 = LINE ( 'NONE', #140, #232 ) ;
#67 = EDGE_CURVE ( 'NONE', #166, #180, #82, .T. ) ;
#68 = CIRCLE ( 'NONE', #36, 5.500000000000000000 ) ;
#69 = CARTESIAN_POINT ( 'NONE',  ( 0.000000000000000000, 0.000000000000000000, 5.000000000000000000 ) ) ;
#70 = VECTOR ( 'NONE', #28, 1000.000000000000000 ) ;
#71 = CARTESIAN_POINT ( 'NONE',  ( -5.500000000000000000, 0.000000000000000000, 405.0000000000000000 ) ) ;
#72 = CALENDAR_DATE ( 2022, 7, 7 ) ;
#73 = LINE ( 'NONE', #4, #254 ) ;
#74 = DIRECTION ( 'NONE',  ( 0.000000000000000000, 0.000000000000000000, 1.000000000000000000 ) ) ;
#75 = CALENDAR_DATE ( 2022, 7, 7 ) ;
#76 = ORIENTED_EDGE ( 'NONE', *, *, #143, .F. ) ;
#77 = APPROVAL_STATUS ( 'not_yet_approved' ) ;
#78 = FACE_OUTER_BOUND ( 'NONE', #147, .T. ) ;
#79 = EDGE_CURVE ( 'NONE', #149, #120, #66, .T. ) ;
#80 = COORDINATED_UNIVERSAL_TIME_OFFSET ( 1, 0, .AHEAD. ) ;
#81 = CARTESIAN_POINT ( 'NONE',  ( 0.000000000000000000, 0.000000000000000000, 405.0000000000000000 ) ) ;
#82 = LINE ( 'NONE', #169, #70 ) ;
#83 = AXIS2_PLACEMENT_3D ( 'NONE', #20, #236, #54 ) ;
#84 = CARTESIAN_POINT ( 'NONE',  ( 0.000000000000000000, 0.000000000000000000, 405.0000000000000000 ) ) ;
#85 = CARTESIAN_POINT ( 'NONE',  ( 0.000000000000000000, 0.000000000000000000, 405.0000000000000000 ) ) ;
#86 = CIRCLE ( 'NONE', #245, 8.000000000000000000 ) ;
#87 = COORDINATED_UNIVERSAL_TIME_OFFSET ( 1, 0, .AHEAD. ) ;
#88 = EDGE_CURVE ( 'NONE', #166, #244, #104, .T. ) ;
#89 = DIRECTION ( 'NONE',  ( -0.000000000000000000, -0.000000000000000000, -1.000000000000000000 ) ) ;
#90 = CIRCLE ( 'NONE', #126, 5.500000000000000000 ) ;
#91 = PERSON_AND_ORGANIZATION ( #252, #18 ) ;
#92 = DIRECTION ( 'NONE',  ( 1.000000000000000000, 0.000000000000000000, 0.000000000000000000 ) ) ;
#93 = PRODUCT ( '4736', '4736', '', ( #228 ) ) ;
#94 = FACE_OUTER_BOUND ( 'NONE', #64, .T. ) ;
#95 = APPROVAL ( #190, 'NEURÈENÝ' ) ;
#96 = DIRECTION ( 'NONE',  ( 1.000000000000000000, 0.000000000000000000, 0.000000000000000000 ) ) ;
#97 = DIRECTION ( 'NONE',  ( -0.000000000000000000, -0.000000000000000000, -1.000000000000000000 ) ) ;
#98 = PERSON_AND_ORGANIZATION_ROLE ( 'design_owner' ) ;
#99 = ORIENTED_EDGE ( 'NONE', *, *, #130, .F. ) ;
#100 = EDGE_CURVE ( 'NONE', #49, #217, #108, .T. ) ;
#101 = EDGE_LOOP ( 'NONE', ( #205, #201 ) ) ;
#102 = DIRECTION ( 'NONE',  ( 0.000000000000000000, 0.000000000000000000, 1.000000000000000000 ) ) ;
#103 = DIRECTION ( 'NONE',  ( 1.000000000000000000, 0.000000000000000000, 0.000000000000000000 ) ) ;
#104 = CIRCLE ( 'NONE', #38, 5.500000000000000000 ) ;
#105 = LOCAL_TIME ( 19, 22, 9.000000000000000000, #204 ) ;
#106 = PRODUCT_RELATED_PRODUCT_CATEGORY ( 'detail', '', ( #93 ) ) ;
#107 = AXIS2_PLACEMENT_3D ( 'NONE', #81, #52, #103 ) ;
#108 = LINE ( 'NONE', #39, #24 ) ;
#109 = DIRECTION ( 'NONE',  ( -0.000000000000000000, -0.000000000000000000, -1.000000000000000000 ) ) ;
#110 = COORDINATED_UNIVERSAL_TIME_OFFSET ( 1, 0, .AHEAD. ) ;
#111 = DIRECTION ( 'NONE',  ( 1.000000000000000000, 0.000000000000000000, 0.000000000000000000 ) ) ;
#112 = AXIS2_PLACEMENT_3D ( 'NONE', #144, #249, #96 ) ;
#113 = DIRECTION ( 'NONE',  ( 0.000000000000000000, 0.000000000000000000, 1.000000000000000000 ) ) ;
#114 = ORIENTED_EDGE ( 'NONE', *, *, #100, .T. ) ;
#115 = DATE_AND_TIME ( #218, #138 ) ;
#116 = VERTEX_POINT ( 'NONE', #177 ) ;
#117 = SECURITY_CLASSIFICATION ( '', '', #176 ) ;
#118 = CC_DESIGN_APPROVAL ( #137, ( #189 ) ) ;
#119 = APPROVAL_ROLE ( '' ) ;
#120 = VERTEX_POINT ( 'NONE', #55 ) ;
#121 = DIRECTION ( 'NONE',  ( 0.000000000000000000, 0.000000000000000000, 1.000000000000000000 ) ) ;
#122 = ORIENTED_EDGE ( 'NONE', *, *, #130, .T. ) ;
#123 = DIRECTION ( 'NONE',  ( 1.000000000000000000, 0.000000000000000000, 0.000000000000000000 ) ) ;
#124 = EDGE_LOOP ( 'NONE', ( #35, #60 ) ) ;
#125 = ADVANCED_FACE ( 'NONE', ( #210 ), #191, .T. ) ;
#126 = AXIS2_PLACEMENT_3D ( 'NONE', #195, #26, #157 ) ;
#127 = AXIS2_PLACEMENT_3D ( 'NONE', #216, #109, #175 ) ;
#128 = CC_DESIGN_PERSON_AND_ORGANIZATION_ASSIGNMENT ( #165, #247, ( #189 ) ) ;
#129 = CLOSED_SHELL ( 'NONE', ( #7, #197, #150, #246, #235, #125, #153 ) ) ;
#130 = EDGE_CURVE ( 'NONE', #120, #217, #62, .T. ) ;
#131 = DIRECTION ( 'NONE',  ( -0.000000000000000000, -0.000000000000000000, -1.000000000000000000 ) ) ;
#132 = CC_DESIGN_PERSON_AND_ORGANIZATION_ASSIGNMENT ( #91, #193, ( #152 ) ) ;
#133 = PLANE ( 'NONE',  #136 ) ;
#134 = PERSON_AND_ORGANIZATION ( #252, #18 ) ;
#135 = CYLINDRICAL_SURFACE ( 'NONE', #187, 8.000000000000000000 ) ;
#136 = AXIS2_PLACEMENT_3D ( 'NONE', #84, #139, #158 ) ;
#137 = APPROVAL ( #34, 'NEURÈENÝ' ) ;
#138 = LOCAL_TIME ( 19, 22, 9.000000000000000000, #48 ) ;
#139 = DIRECTION ( 'NONE',  ( 0.000000000000000000, 0.000000000000000000, 1.000000000000000000 ) ) ;
#140 = CARTESIAN_POINT ( 'NONE',  ( -8.000000000000000000, 0.000000000000000000, 5.000000000000000000 ) ) ;
#141 = CARTESIAN_POINT ( 'NONE',  ( 0.000000000000000000, 0.000000000000000000, 5.000000000000000000 ) ) ;
#142 = ORIENTED_EDGE ( 'NONE', *, *, #79, .F. ) ;
#143 = EDGE_CURVE ( 'NONE', #49, #149, #86, .T. ) ;
#144 = CARTESIAN_POINT ( 'NONE',  ( 0.000000000000000000, 0.000000000000000000, 0.000000000000000000 ) ) ;
#145 = ORIENTED_EDGE ( 'NONE', *, *, #251, .T. ) ;
#146 = CALENDAR_DATE ( 2022, 7, 7 ) ;
#147 = EDGE_LOOP ( 'NONE', ( #51, #183, #219, #248 ) ) ;
#148 = DATE_TIME_ROLE ( 'creation_date' ) ;
#149 = VERTEX_POINT ( 'NONE', #239 ) ;
#150 = ADVANCED_FACE ( 'NONE', ( #178 ), #192, .T. ) ;
#151 = AXIS2_PLACEMENT_3D ( 'NONE', #6, #196, #25 ) ;
#152 = PRODUCT_DEFINITION_FORMATION_WITH_SPECIFIED_SOURCE ( 'LIBOVOLNÝ', '', #93, .NOT_KNOWN. ) ;
#153 = ADVANCED_FACE ( 'NONE', ( #173 ), #133, .T. ) ;
#154 = EDGE_CURVE ( 'NONE', #244, #116, #73, .T. ) ;
#155 = DIRECTION ( 'NONE',  ( 0.000000000000000000, 0.000000000000000000, 1.000000000000000000 ) ) ;
#156 = LOCAL_TIME ( 19, 22, 9.000000000000000000, #110 ) ;
#157 = DIRECTION ( 'NONE',  ( 1.000000000000000000, 0.000000000000000000, 0.000000000000000000 ) ) ;
#158 = DIRECTION ( 'NONE',  ( 1.000000000000000000, 0.000000000000000000, -0.000000000000000000 ) ) ;
#159 = CC_DESIGN_DATE_AND_TIME_ASSIGNMENT ( #174, #212, ( #117 ) ) ;
#160 = DIRECTION ( 'NONE',  ( 1.000000000000000000, 0.000000000000000000, 0.000000000000000000 ) ) ;
#161 = DATE_AND_TIME ( #146, #105 ) ;
#162 = ORIENTED_EDGE ( 'NONE', *, *, #100, .F. ) ;
#163 = CARTESIAN_POINT ( 'NONE',  ( 0.000000000000000000, 0.000000000000000000, 5.000000000000000000 ) ) ;
#164 = CYLINDRICAL_SURFACE ( 'NONE', #230, 5.500000000000000000 ) ;
#165 = PERSON_AND_ORGANIZATION ( #252, #18 ) ;
#166 = VERTEX_POINT ( 'NONE', #56 ) ;
#167 = CC_DESIGN_SECURITY_CLASSIFICATION ( #117, ( #152 ) ) ;
#168 = APPLICATION_PROTOCOL_DEFINITION ( 'international standard', 'config_control_design', 1994, #19 ) ;
#169 = CARTESIAN_POINT ( 'NONE',  ( 5.500000000000000000, 6.735557395310442023E-16, 405.0000000000000000 ) ) ;
#170 =( GEOMETRIC_REPRESENTATION_CONTEXT ( 3 ) GLOBAL_UNCERTAINTY_ASSIGNED_CONTEXT ( ( #172 ) ) GLOBAL_UNIT_ASSIGNED_CONTEXT ( ( #30, #11, #61 ) ) REPRESENTATION_CONTEXT ( 'NONE', 'WORKASPACE' ) );
#171 = DIRECTION ( 'NONE',  ( 0.000000000000000000, 0.000000000000000000, 1.000000000000000000 ) ) ;
#172 = UNCERTAINTY_MEASURE_WITH_UNIT (LENGTH_MEASURE( 1.000000000000000082E-05 ), #30, 'distance_accuracy_value', 'NONE');
#173 = FACE_OUTER_BOUND ( 'NONE', #124, .T. ) ;
#174 = DATE_AND_TIME ( #72, #50 ) ;
#175 = DIRECTION ( 'NONE',  ( -1.000000000000000000, 0.000000000000000000, 0.000000000000000000 ) ) ;
#176 = SECURITY_CLASSIFICATION_LEVEL ( 'unclassified' ) ;
#177 = CARTESIAN_POINT ( 'NONE',  ( -5.500000000000000000, 0.000000000000000000, 5.000000000000000000 ) ) ;
#178 = FACE_OUTER_BOUND ( 'NONE', #243, .T. ) ;
#179 = PLANE ( 'NONE',  #1 ) ;
#180 = VERTEX_POINT ( 'NONE', #43 ) ;
#181 = APPROVAL_PERSON_ORGANIZATION ( #44, #95, #8 ) ;
#182 = FACE_BOUND ( 'NONE', #101, .T. ) ;
#183 = ORIENTED_EDGE ( 'NONE', *, *, #67, .T. ) ;
#184 = PERSON_AND_ORGANIZATION ( #252, #18 ) ;
#185 = ORIENTED_EDGE ( 'NONE', *, *, #67, .F. ) ;
#186 = ORIENTED_EDGE ( 'NONE', *, *, #220, .F. ) ;
#187 = AXIS2_PLACEMENT_3D ( 'NONE', #211, #57, #41 ) ;
#188 = EDGE_CURVE ( 'NONE', #180, #116, #90, .T. ) ;
#189 = PRODUCT_DEFINITION ( 'NEZNÁMÝ', '', #152, #238 ) ;
#190 = APPROVAL_STATUS ( 'not_yet_approved' ) ;
#191 = CYLINDRICAL_SURFACE ( 'NONE', #127, 5.500000000000000000 ) ;
#192 = CYLINDRICAL_SURFACE ( 'NONE', #151, 8.000000000000000000 ) ;
#193 = PERSON_AND_ORGANIZATION_ROLE ( 'design_supplier' ) ;
#194 = AXIS2_PLACEMENT_3D ( 'NONE', #9, #74, #160 ) ;
#195 = CARTESIAN_POINT ( 'NONE',  ( 0.000000000000000000, 0.000000000000000000, 5.000000000000000000 ) ) ;
#196 = DIRECTION ( 'NONE',  ( -0.000000000000000000, -0.000000000000000000, -1.000000000000000000 ) ) ;
#197 = ADVANCED_FACE ( 'NONE', ( #240 ), #135, .T. ) ;
#198 = EDGE_LOOP ( 'NONE', ( #185, #222, #12, #53 ) ) ;
#199 = EDGE_CURVE ( 'NONE', #116, #180, #68, .T. ) ;
#200 = APPROVAL_DATE_TIME ( #115, #33 ) ;
#201 = ORIENTED_EDGE ( 'NONE', *, *, #188, .F. ) ;
#202 = DIRECTION ( 'NONE',  ( 1.000000000000000000, 0.000000000000000000, -0.000000000000000000 ) ) ;
#203 = ORIENTED_EDGE ( 'NONE', *, *, #220, .T. ) ;
#204 = COORDINATED_UNIVERSAL_TIME_OFFSET ( 1, 0, .AHEAD. ) ;
#205 = ORIENTED_EDGE ( 'NONE', *, *, #199, .F. ) ;
#206 = CC_DESIGN_PERSON_AND_ORGANIZATION_ASSIGNMENT ( #134, #3, ( #117 ) ) ;
#207 = APPROVAL_DATE_TIME ( #59, #137 ) ;
#208 = APPROVAL_PERSON_ORGANIZATION ( #184, #137, #119 ) ;
#209 = AXIS2_PLACEMENT_3D ( 'NONE', #2, #113, #111 ) ;
#210 = FACE_OUTER_BOUND ( 'NONE', #198, .T. ) ;
#211 = CARTESIAN_POINT ( 'NONE',  ( 0.000000000000000000, 0.000000000000000000, 5.000000000000000000 ) ) ;
#212 = DATE_TIME_ROLE ( 'classification_date' ) ;
#213 = CIRCLE ( 'NONE', #107, 5.500000000000000000 ) ;
#214 = CARTESIAN_POINT ( 'NONE',  ( 8.000000000000000000, 9.797174393178825657E-16, 0.000000000000000000 ) ) ;
#215 = CC_DESIGN_APPROVAL ( #33, ( #152 ) ) ;
#216 = CARTESIAN_POINT ( 'NONE',  ( 0.000000000000000000, 0.000000000000000000, 405.0000000000000000 ) ) ;
#217 = VERTEX_POINT ( 'NONE', #214 ) ;
#218 = CALENDAR_DATE ( 2022, 7, 7 ) ;
#219 = ORIENTED_EDGE ( 'NONE', *, *, #188, .T. ) ;
#220 = EDGE_CURVE ( 'NONE', #217, #120, #233, .T. ) ;
#221 = FACE_OUTER_BOUND ( 'NONE', #15, .T. ) ;
#222 = ORIENTED_EDGE ( 'NONE', *, *, #29, .F. ) ;
#223 = ADVANCED_BREP_SHAPE_REPRESENTATION ( '4736', ( #225, #112 ), #170 ) ;
#224 = CIRCLE ( 'NONE', #234, 8.000000000000000000 ) ;
#225 = MANIFOLD_SOLID_BREP ( 'Pøidat vysunutím3', #129 ) ;
#226 = PERSON_AND_ORGANIZATION ( #252, #18 ) ;
#227 = DIRECTION ( 'NONE',  ( -1.000000000000000000, 0.000000000000000000, 0.000000000000000000 ) ) ;
#228 = MECHANICAL_CONTEXT ( 'NONE', #255, 'mechanical' ) ;
#229 = DIRECTION ( 'NONE',  ( -0.000000000000000000, -0.000000000000000000, -1.000000000000000000 ) ) ;
#230 = AXIS2_PLACEMENT_3D ( 'NONE', #250, #229, #227 ) ;
#231 = CC_DESIGN_DATE_AND_TIME_ASSIGNMENT ( #161, #148, ( #189 ) ) ;
#232 = VECTOR ( 'NONE', #97, 1000.000000000000000 ) ;
#233 = CIRCLE ( 'NONE', #194, 8.000000000000000000 ) ;
#234 = AXIS2_PLACEMENT_3D ( 'NONE', #141, #102, #123 ) ;
#235 = ADVANCED_FACE ( 'NONE', ( #94 ), #10, .F. ) ;
#236 = DIRECTION ( 'NONE',  ( 0.000000000000000000, 0.000000000000000000, 1.000000000000000000 ) ) ;
#237 = LOCAL_TIME ( 19, 22, 9.000000000000000000, #80 ) ;
#238 = DESIGN_CONTEXT ( 'detailed design', #19, 'design' ) ;
#239 = CARTESIAN_POINT ( 'NONE',  ( -8.000000000000000000, 0.000000000000000000, 5.000000000000000000 ) ) ;
#240 = FACE_OUTER_BOUND ( 'NONE', #14, .T. ) ;
#241 = DIRECTION ( 'NONE',  ( 1.000000000000000000, 0.000000000000000000, 0.000000000000000000 ) ) ;
#242 = APPROVAL_DATE_TIME ( #40, #95 ) ;
#243 = EDGE_LOOP ( 'NONE', ( #162, #31, #47, #122 ) ) ;
#244 = VERTEX_POINT ( 'NONE', #71 ) ;
#245 = AXIS2_PLACEMENT_3D ( 'NONE', #22, #27, #241 ) ;
#246 = ADVANCED_FACE ( 'NONE', ( #182, #221 ), #179, .T. ) ;
#247 = PERSON_AND_ORGANIZATION_ROLE ( 'creator' ) ;
#248 = ORIENTED_EDGE ( 'NONE', *, *, #154, .F. ) ;
#249 = DIRECTION ( 'NONE',  ( 0.000000000000000000, 0.000000000000000000, 1.000000000000000000 ) ) ;
#250 = CARTESIAN_POINT ( 'NONE',  ( 0.000000000000000000, 0.000000000000000000, 405.0000000000000000 ) ) ;
#251 = EDGE_CURVE ( 'NONE', #149, #49, #224, .T. ) ;
#252 = PERSON ( 'NEURÈENÝ', 'NEURÈENÝ', 'NEURÈENÝ', ('NEURÈENÝ'), ('NEURÈENÝ'), ('NEURÈENÝ') ) ;
#253 = CC_DESIGN_PERSON_AND_ORGANIZATION_ASSIGNMENT ( #23, #5, ( #152 ) ) ;
#254 = VECTOR ( 'NONE', #131, 1000.000000000000000 ) ;
#255 = APPLICATION_CONTEXT ( 'configuration controlled 3d designs of mechanical parts and assemblies' ) ;
ENDSEC;
END-ISO-10303-21;
