ISO-10303-21;
HEADER;
FILE_DESCRIPTION (( 'STEP AP203' ),
    '1' );
FILE_NAME ('ab85.STEP',
    '2023-02-13T16:09:07',
    ( '' ),
    ( '' ),
    'SwSTEP 2.0',
    'SolidWorks 2019',
    '' );
FILE_SCHEMA (( 'CONFIG_CONTROL_DESIGN' ));
ENDSEC;

DATA;
#1 = DIRECTION ( 'NONE',  ( 0.000000000000000000, 0.000000000000000000, 1.000000000000000000 ) ) ;
#2 = CC_DESIGN_PERSON_AND_ORGANIZATION_ASSIGNMENT ( #33, #199, ( #132 ) ) ;
#3 = EDGE_CURVE ( 'NONE', #29, #127, #126, .T. ) ;
#4 = APPROVAL_DATE_TIME ( #179, #36 ) ;
#5 = DIRECTION ( 'NONE',  ( 0.000000000000000000, 0.000000000000000000, 1.000000000000000000 ) ) ;
#6 = ORIENTED_EDGE ( 'NONE', *, *, #3, .T. ) ;
#7 = LOCAL_TIME ( 17, 9, 7.000000000000000000, #74 ) ;
#8 = ADVANCED_FACE ( 'NONE', ( #145 ), #201, .T. ) ;
#9 = EDGE_CURVE ( 'NONE', #70, #12, #236, .T. ) ;
#10 = PERSON_AND_ORGANIZATION ( #65, #224 ) ;
#11 = EDGE_LOOP ( 'NONE', ( #146, #156 ) ) ;
#12 = VERTEX_POINT ( 'NONE', #188 ) ;
#13 = FACE_OUTER_BOUND ( 'NONE', #83, .T. ) ;
#14 = DATE_TIME_ROLE ( 'classification_date' ) ;
#15 = CARTESIAN_POINT ( 'NONE',  ( -2.100000000000000089, 0.000000000000000000, 100.0000000000000000 ) ) ;
#16 = APPROVAL_STATUS ( 'not_yet_approved' ) ;
#17 = PERSON_AND_ORGANIZATION_ROLE ( 'classification_officer' ) ;
#18 = DIRECTION ( 'NONE',  ( 1.000000000000000000, 0.000000000000000000, -0.000000000000000000 ) ) ;
#19 = CYLINDRICAL_SURFACE ( 'NONE', #169, 4.000000000000000000 ) ;
#20 = CIRCLE ( 'NONE', #211, 4.000000000000000000 ) ;
#21 = DIRECTION ( 'NONE',  ( -0.000000000000000000, -0.000000000000000000, -1.000000000000000000 ) ) ;
#22 = PERSON_AND_ORGANIZATION_ROLE ( 'creator' ) ;
#23 =( GEOMETRIC_REPRESENTATION_CONTEXT ( 3 ) GLOBAL_UNCERTAINTY_ASSIGNED_CONTEXT ( ( #242 ) ) GLOBAL_UNIT_ASSIGNED_CONTEXT ( ( #141, #210, #124 ) ) REPRESENTATION_CONTEXT ( 'NONE', 'WORKASPACE' ) );
#24 = ORIENTED_EDGE ( 'NONE', *, *, #37, .F. ) ;
#25 = ORIENTED_EDGE ( 'NONE', *, *, #93, .F. ) ;
#26 = EDGE_CURVE ( 'NONE', #127, #29, #184, .T. ) ;
#27 = CC_DESIGN_SECURITY_CLASSIFICATION ( #31, ( #132 ) ) ;
#28 = PERSON_AND_ORGANIZATION ( #65, #224 ) ;
#29 = VERTEX_POINT ( 'NONE', #150 ) ;
#30 = SECURITY_CLASSIFICATION_LEVEL ( 'unclassified' ) ;
#31 = SECURITY_CLASSIFICATION ( '', '', #30 ) ;
#32 = CARTESIAN_POINT ( 'NONE',  ( 0.000000000000000000, 0.000000000000000000, 0.000000000000000000 ) ) ;
#33 = PERSON_AND_ORGANIZATION ( #65, #224 ) ;
#34 = DIRECTION ( 'NONE',  ( 1.000000000000000000, 0.000000000000000000, 0.000000000000000000 ) ) ;
#35 = DIRECTION ( 'NONE',  ( 1.000000000000000000, 0.000000000000000000, -0.000000000000000000 ) ) ;
#36 = APPROVAL ( #104, 'NEURÈENÝ' ) ;
#37 = EDGE_CURVE ( 'NONE', #47, #29, #202, .T. ) ;
#38 = DIRECTION ( 'NONE',  ( -0.000000000000000000, -0.000000000000000000, -1.000000000000000000 ) ) ;
#39 = DIRECTION ( 'NONE',  ( 0.000000000000000000, 0.000000000000000000, 1.000000000000000000 ) ) ;
#40 = DIRECTION ( 'NONE',  ( -0.000000000000000000, -0.000000000000000000, -1.000000000000000000 ) ) ;
#41 = CIRCLE ( 'NONE', #64, 2.100000000000000089 ) ;
#42 = LINE ( 'NONE', #61, #142 ) ;
#43 = AXIS2_PLACEMENT_3D ( 'NONE', #32, #94, #49 ) ;
#44 = APPROVAL_PERSON_ORGANIZATION ( #168, #73, #221 ) ;
#45 = ORIENTED_EDGE ( 'NONE', *, *, #26, .F. ) ;
#46 = CC_DESIGN_PERSON_AND_ORGANIZATION_ASSIGNMENT ( #82, #22, ( #90 ) ) ;
#47 = VERTEX_POINT ( 'NONE', #228 ) ;
#48 = ORIENTED_EDGE ( 'NONE', *, *, #213, .F. ) ;
#49 = DIRECTION ( 'NONE',  ( 1.000000000000000000, 0.000000000000000000, 0.000000000000000000 ) ) ;
#50 = DATE_AND_TIME ( #186, #106 ) ;
#51 = CARTESIAN_POINT ( 'NONE',  ( 0.000000000000000000, 0.000000000000000000, 100.0000000000000000 ) ) ;
#52 = AXIS2_PLACEMENT_3D ( 'NONE', #214, #5, #81 ) ;
#53 = CALENDAR_DATE ( 2023, 13, 2 ) ;
#54 = CC_DESIGN_PERSON_AND_ORGANIZATION_ASSIGNMENT ( #245, #95, ( #132 ) ) ;
#55 = FACE_BOUND ( 'NONE', #108, .T. ) ;
#56 = PLANE ( 'NONE',  #144 ) ;
#57 = DIRECTION ( 'NONE',  ( -0.000000000000000000, -0.000000000000000000, -1.000000000000000000 ) ) ;
#58 = APPLICATION_CONTEXT ( 'configuration controlled 3d designs of mechanical parts and assemblies' ) ;
#59 = FACE_OUTER_BOUND ( 'NONE', #178, .T. ) ;
#60 = CARTESIAN_POINT ( 'NONE',  ( 0.000000000000000000, 0.000000000000000000, 100.0000000000000000 ) ) ;
#61 = CARTESIAN_POINT ( 'NONE',  ( -4.000000000000000000, 0.000000000000000000, 3.000000000000000000 ) ) ;
#62 = PRODUCT_RELATED_PRODUCT_CATEGORY ( 'detail', '', ( #170 ) ) ;
#63 = ORIENTED_EDGE ( 'NONE', *, *, #203, .F. ) ;
#64 = AXIS2_PLACEMENT_3D ( 'NONE', #51, #76, #34 ) ;
#65 = PERSON ( 'NEURÈENÝ', 'NEURÈENÝ', 'NEURÈENÝ', ('NEURÈENÝ'), ('NEURÈENÝ'), ('NEURÈENÝ') ) ;
#66 = CIRCLE ( 'NONE', #122, 2.100000000000000089 ) ;
#67 = ORIENTED_EDGE ( 'NONE', *, *, #147, .F. ) ;
#68 = PERSON_AND_ORGANIZATION_ROLE ( 'design_owner' ) ;
#69 = ORIENTED_EDGE ( 'NONE', *, *, #244, .F. ) ;
#70 = VERTEX_POINT ( 'NONE', #247 ) ;
#71 = DIRECTION ( 'NONE',  ( 0.000000000000000000, 0.000000000000000000, 1.000000000000000000 ) ) ;
#72 = FACE_OUTER_BOUND ( 'NONE', #220, .T. ) ;
#73 = APPROVAL ( #16, 'NEURÈENÝ' ) ;
#74 = COORDINATED_UNIVERSAL_TIME_OFFSET ( 1, 0, .AHEAD. ) ;
#75 = ADVANCED_FACE ( 'NONE', ( #13 ), #250, .T. ) ;
#76 = DIRECTION ( 'NONE',  ( 0.000000000000000000, 0.000000000000000000, 1.000000000000000000 ) ) ;
#77 = AXIS2_PLACEMENT_3D ( 'NONE', #114, #71, #134 ) ;
#78 = CARTESIAN_POINT ( 'NONE',  ( 0.000000000000000000, 0.000000000000000000, 100.0000000000000000 ) ) ;
#79 = ADVANCED_FACE ( 'NONE', ( #55, #72 ), #165, .T. ) ;
#80 = DATE_TIME_ROLE ( 'creation_date' ) ;
#81 = DIRECTION ( 'NONE',  ( 1.000000000000000000, 0.000000000000000000, 0.000000000000000000 ) ) ;
#82 = PERSON_AND_ORGANIZATION ( #65, #224 ) ;
#83 = EDGE_LOOP ( 'NONE', ( #182, #240 ) ) ;
#84 = AXIS2_PLACEMENT_3D ( 'NONE', #128, #181, #197 ) ;
#85 = MECHANICAL_CONTEXT ( 'NONE', #167, 'mechanical' ) ;
#86 = ORIENTED_EDGE ( 'NONE', *, *, #9, .T. ) ;
#87 = CALENDAR_DATE ( 2023, 13, 2 ) ;
#88 = ORIENTED_EDGE ( 'NONE', *, *, #37, .T. ) ;
#89 = PERSON_AND_ORGANIZATION ( #65, #224 ) ;
#90 = PRODUCT_DEFINITION ( 'NEZNÁMÝ', '', #132, #185 ) ;
#91 = CARTESIAN_POINT ( 'NONE',  ( 4.000000000000000000, 4.898587196589412829E-16, 3.000000000000000000 ) ) ;
#92 = SHAPE_DEFINITION_REPRESENTATION ( #254, #227 ) ;
#93 = EDGE_CURVE ( 'NONE', #235, #47, #41, .T. ) ;
#94 = DIRECTION ( 'NONE',  ( 0.000000000000000000, 0.000000000000000000, 1.000000000000000000 ) ) ;
#95 = PERSON_AND_ORGANIZATION_ROLE ( 'design_supplier' ) ;
#96 = CARTESIAN_POINT ( 'NONE',  ( 2.100000000000000089, 2.571758278209441464E-16, 3.000000000000000000 ) ) ;
#97 = DIRECTION ( 'NONE',  ( -1.000000000000000000, 0.000000000000000000, 0.000000000000000000 ) ) ;
#98 = DIRECTION ( 'NONE',  ( 0.000000000000000000, 0.000000000000000000, 1.000000000000000000 ) ) ;
#99 = AXIS2_PLACEMENT_3D ( 'NONE', #205, #38, #119 ) ;
#100 = LOCAL_TIME ( 17, 9, 7.000000000000000000, #151 ) ;
#101 = AXIS2_PLACEMENT_3D ( 'NONE', #175, #1, #155 ) ;
#102 = LINE ( 'NONE', #125, #238 ) ;
#103 = CYLINDRICAL_SURFACE ( 'NONE', #216, 2.100000000000000089 ) ;
#104 = APPROVAL_STATUS ( 'not_yet_approved' ) ;
#105 = ORIENTED_EDGE ( 'NONE', *, *, #171, .T. ) ;
#106 = LOCAL_TIME ( 17, 9, 7.000000000000000000, #223 ) ;
#107 = APPLICATION_PROTOCOL_DEFINITION ( 'international standard', 'config_control_design', 1994, #58 ) ;
#108 = EDGE_LOOP ( 'NONE', ( #200, #45 ) ) ;
#109 = ADVANCED_FACE ( 'NONE', ( #117 ), #56, .F. ) ;
#110 = DATE_AND_TIME ( #252, #7 ) ;
#111 = ORIENTED_EDGE ( 'NONE', *, *, #233, .T. ) ;
#112 = AXIS2_PLACEMENT_3D ( 'NONE', #118, #249, #18 ) ;
#113 = AXIS2_PLACEMENT_3D ( 'NONE', #222, #149, #35 ) ;
#114 = CARTESIAN_POINT ( 'NONE',  ( 0.000000000000000000, 0.000000000000000000, 3.000000000000000000 ) ) ;
#115 = APPROVAL_STATUS ( 'not_yet_approved' ) ;
#116 = DATE_AND_TIME ( #53, #100 ) ;
#117 = FACE_OUTER_BOUND ( 'NONE', #11, .T. ) ;
#118 = CARTESIAN_POINT ( 'NONE',  ( 0.000000000000000000, 0.000000000000000000, 3.000000000000000000 ) ) ;
#119 = DIRECTION ( 'NONE',  ( -1.000000000000000000, 0.000000000000000000, 0.000000000000000000 ) ) ;
#120 = CARTESIAN_POINT ( 'NONE',  ( -4.000000000000000000, 0.000000000000000000, 3.000000000000000000 ) ) ;
#121 = DIRECTION ( 'NONE',  ( -0.000000000000000000, -0.000000000000000000, -1.000000000000000000 ) ) ;
#122 = AXIS2_PLACEMENT_3D ( 'NONE', #60, #172, #191 ) ;
#123 = DIRECTION ( 'NONE',  ( -1.000000000000000000, 0.000000000000000000, 0.000000000000000000 ) ) ;
#124 =( NAMED_UNIT ( * ) SI_UNIT ( $, .STERADIAN. ) SOLID_ANGLE_UNIT ( ) );
#125 = CARTESIAN_POINT ( 'NONE',  ( 2.100000000000000089, 2.571758278209441464E-16, 100.0000000000000000 ) ) ;
#126 = CIRCLE ( 'NONE', #52, 2.100000000000000089 ) ;
#127 = VERTEX_POINT ( 'NONE', #96 ) ;
#128 = CARTESIAN_POINT ( 'NONE',  ( 0.000000000000000000, 0.000000000000000000, 0.000000000000000000 ) ) ;
#129 = ORIENTED_EDGE ( 'NONE', *, *, #203, .T. ) ;
#130 = EDGE_LOOP ( 'NONE', ( #25, #111, #131, #24 ) ) ;
#131 = ORIENTED_EDGE ( 'NONE', *, *, #26, .T. ) ;
#132 = PRODUCT_DEFINITION_FORMATION_WITH_SPECIFIED_SOURCE ( 'LIBOVOLNÝ', '', #170, .NOT_KNOWN. ) ;
#133 = DIRECTION ( 'NONE',  ( -1.000000000000000000, 0.000000000000000000, 0.000000000000000000 ) ) ;
#134 = DIRECTION ( 'NONE',  ( 1.000000000000000000, 0.000000000000000000, 0.000000000000000000 ) ) ;
#135 = DIRECTION ( 'NONE',  ( 0.000000000000000000, 0.000000000000000000, 1.000000000000000000 ) ) ;
#136 = CYLINDRICAL_SURFACE ( 'NONE', #99, 4.000000000000000000 ) ;
#137 = ADVANCED_FACE ( 'NONE', ( #253 ), #136, .T. ) ;
#138 = CIRCLE ( 'NONE', #101, 4.000000000000000000 ) ;
#139 = CARTESIAN_POINT ( 'NONE',  ( 0.000000000000000000, 0.000000000000000000, 3.000000000000000000 ) ) ;
#140 = CARTESIAN_POINT ( 'NONE',  ( 0.000000000000000000, 0.000000000000000000, 0.000000000000000000 ) ) ;
#141 =( LENGTH_UNIT ( ) NAMED_UNIT ( * ) SI_UNIT ( .MILLI., .METRE. ) );
#142 = VECTOR ( 'NONE', #121, 1000.000000000000000 ) ;
#143 = ORIENTED_EDGE ( 'NONE', *, *, #232, .F. ) ;
#144 = AXIS2_PLACEMENT_3D ( 'NONE', #187, #135, #204 ) ;
#145 = FACE_OUTER_BOUND ( 'NONE', #130, .T. ) ;
#146 = ORIENTED_EDGE ( 'NONE', *, *, #9, .F. ) ;
#147 = EDGE_CURVE ( 'NONE', #217, #12, #189, .T. ) ;
#148 = CC_DESIGN_DATE_AND_TIME_ASSIGNMENT ( #157, #80, ( #90 ) ) ;
#149 = DIRECTION ( 'NONE',  ( 0.000000000000000000, 0.000000000000000000, 1.000000000000000000 ) ) ;
#150 = CARTESIAN_POINT ( 'NONE',  ( -2.100000000000000089, 0.000000000000000000, 3.000000000000000000 ) ) ;
#151 = COORDINATED_UNIVERSAL_TIME_OFFSET ( 1, 0, .AHEAD. ) ;
#152 = APPLICATION_PROTOCOL_DEFINITION ( 'international standard', 'config_control_design', 1994, #167 ) ;
#153 = AXIS2_PLACEMENT_3D ( 'NONE', #225, #229, #133 ) ;
#154 = CC_DESIGN_APPROVAL ( #36, ( #90 ) ) ;
#155 = DIRECTION ( 'NONE',  ( 1.000000000000000000, 0.000000000000000000, 0.000000000000000000 ) ) ;
#156 = ORIENTED_EDGE ( 'NONE', *, *, #171, .F. ) ;
#157 = DATE_AND_TIME ( #218, #251 ) ;
#158 = CC_DESIGN_APPROVAL ( #243, ( #132 ) ) ;
#159 = ORIENTED_EDGE ( 'NONE', *, *, #244, .T. ) ;
#160 = ADVANCED_FACE ( 'NONE', ( #59 ), #103, .T. ) ;
#161 = EDGE_LOOP ( 'NONE', ( #69, #195, #105, #63 ) ) ;
#162 = COORDINATED_UNIVERSAL_TIME_OFFSET ( 1, 0, .AHEAD. ) ;
#163 = APPROVAL_ROLE ( '' ) ;
#164 = APPROVAL_DATE_TIME ( #50, #243 ) ;
#165 = PLANE ( 'NONE',  #112 ) ;
#166 = DIRECTION ( 'NONE',  ( -0.000000000000000000, -0.000000000000000000, -1.000000000000000000 ) ) ;
#167 = APPLICATION_CONTEXT ( 'configuration controlled 3d designs of mechanical parts and assemblies' ) ;
#168 = PERSON_AND_ORGANIZATION ( #65, #224 ) ;
#169 = AXIS2_PLACEMENT_3D ( 'NONE', #139, #40, #123 ) ;
#170 = PRODUCT ( 'ab85', 'ab85', '', ( #85 ) ) ;
#171 = EDGE_CURVE ( 'NONE', #12, #70, #20, .T. ) ;
#172 = DIRECTION ( 'NONE',  ( 0.000000000000000000, 0.000000000000000000, 1.000000000000000000 ) ) ;
#173 = VECTOR ( 'NONE', #230, 1000.000000000000000 ) ;
#174 = AXIS2_PLACEMENT_3D ( 'NONE', #231, #98, #190 ) ;
#175 = CARTESIAN_POINT ( 'NONE',  ( 0.000000000000000000, 0.000000000000000000, 3.000000000000000000 ) ) ;
#176 = LOCAL_TIME ( 17, 9, 7.000000000000000000, #193 ) ;
#177 = ADVANCED_FACE ( 'NONE', ( #209 ), #19, .T. ) ;
#178 = EDGE_LOOP ( 'NONE', ( #241, #48, #88, #6 ) ) ;
#179 = DATE_AND_TIME ( #87, #176 ) ;
#180 = CC_DESIGN_PERSON_AND_ORGANIZATION_ASSIGNMENT ( #28, #68, ( #170 ) ) ;
#181 = DIRECTION ( 'NONE',  ( 0.000000000000000000, 0.000000000000000000, 1.000000000000000000 ) ) ;
#182 = ORIENTED_EDGE ( 'NONE', *, *, #213, .T. ) ;
#183 = APPROVAL_ROLE ( '' ) ;
#184 = CIRCLE ( 'NONE', #77, 2.100000000000000089 ) ;
#185 = DESIGN_CONTEXT ( 'detailed design', #58, 'design' ) ;
#186 = CALENDAR_DATE ( 2023, 13, 2 ) ;
#187 = CARTESIAN_POINT ( 'NONE',  ( 0.000000000000000000, 0.000000000000000000, 0.000000000000000000 ) ) ;
#188 = CARTESIAN_POINT ( 'NONE',  ( 4.000000000000000000, 4.898587196589412829E-16, 0.000000000000000000 ) ) ;
#189 = LINE ( 'NONE', #91, #173 ) ;
#190 = DIRECTION ( 'NONE',  ( 1.000000000000000000, 0.000000000000000000, 0.000000000000000000 ) ) ;
#191 = DIRECTION ( 'NONE',  ( 1.000000000000000000, 0.000000000000000000, 0.000000000000000000 ) ) ;
#192 = CC_DESIGN_DATE_AND_TIME_ASSIGNMENT ( #116, #14, ( #31 ) ) ;
#193 = COORDINATED_UNIVERSAL_TIME_OFFSET ( 1, 0, .AHEAD. ) ;
#194 = CLOSED_SHELL ( 'NONE', ( #8, #177, #137, #79, #109, #160, #75 ) ) ;
#195 = ORIENTED_EDGE ( 'NONE', *, *, #147, .T. ) ;
#196 = VERTEX_POINT ( 'NONE', #120 ) ;
#197 = DIRECTION ( 'NONE',  ( 1.000000000000000000, 0.000000000000000000, 0.000000000000000000 ) ) ;
#198 = EDGE_LOOP ( 'NONE', ( #67, #143, #129, #86 ) ) ;
#199 = PERSON_AND_ORGANIZATION_ROLE ( 'creator' ) ;
#200 = ORIENTED_EDGE ( 'NONE', *, *, #3, .F. ) ;
#201 = CYLINDRICAL_SURFACE ( 'NONE', #153, 2.100000000000000089 ) ;
#202 = LINE ( 'NONE', #15, #215 ) ;
#203 = EDGE_CURVE ( 'NONE', #196, #70, #42, .T. ) ;
#204 = DIRECTION ( 'NONE',  ( 1.000000000000000000, 0.000000000000000000, -0.000000000000000000 ) ) ;
#205 = CARTESIAN_POINT ( 'NONE',  ( 0.000000000000000000, 0.000000000000000000, 3.000000000000000000 ) ) ;
#206 = APPROVAL_PERSON_ORGANIZATION ( #89, #243, #163 ) ;
#207 = CARTESIAN_POINT ( 'NONE',  ( 4.000000000000000000, 4.898587196589412829E-16, 3.000000000000000000 ) ) ;
#208 = MANIFOLD_SOLID_BREP ( 'Pøidat vysunutím3', #194 ) ;
#209 = FACE_OUTER_BOUND ( 'NONE', #161, .T. ) ;
#210 =( NAMED_UNIT ( * ) PLANE_ANGLE_UNIT ( ) SI_UNIT ( $, .RADIAN. ) );
#211 = AXIS2_PLACEMENT_3D ( 'NONE', #140, #39, #234 ) ;
#212 = CC_DESIGN_PERSON_AND_ORGANIZATION_ASSIGNMENT ( #226, #17, ( #31 ) ) ;
#213 = EDGE_CURVE ( 'NONE', #47, #235, #66, .T. ) ;
#214 = CARTESIAN_POINT ( 'NONE',  ( 0.000000000000000000, 0.000000000000000000, 3.000000000000000000 ) ) ;
#215 = VECTOR ( 'NONE', #166, 1000.000000000000000 ) ;
#216 = AXIS2_PLACEMENT_3D ( 'NONE', #78, #57, #97 ) ;
#217 = VERTEX_POINT ( 'NONE', #207 ) ;
#218 = CALENDAR_DATE ( 2023, 13, 2 ) ;
#219 = CC_DESIGN_APPROVAL ( #73, ( #31 ) ) ;
#220 = EDGE_LOOP ( 'NONE', ( #237, #159 ) ) ;
#221 = APPROVAL_ROLE ( '' ) ;
#222 = CARTESIAN_POINT ( 'NONE',  ( 0.000000000000000000, 0.000000000000000000, 100.0000000000000000 ) ) ;
#223 = COORDINATED_UNIVERSAL_TIME_OFFSET ( 1, 0, .AHEAD. ) ;
#224 = ORGANIZATION ( 'NEURÈENÝ', 'NEURÈENÝ', '' ) ;
#225 = CARTESIAN_POINT ( 'NONE',  ( 0.000000000000000000, 0.000000000000000000, 100.0000000000000000 ) ) ;
#226 = PERSON_AND_ORGANIZATION ( #65, #224 ) ;
#227 = ADVANCED_BREP_SHAPE_REPRESENTATION ( 'ab85', ( #208, #84 ), #23 ) ;
#228 = CARTESIAN_POINT ( 'NONE',  ( -2.100000000000000089, 0.000000000000000000, 100.0000000000000000 ) ) ;
#229 = DIRECTION ( 'NONE',  ( -0.000000000000000000, -0.000000000000000000, -1.000000000000000000 ) ) ;
#230 = DIRECTION ( 'NONE',  ( -0.000000000000000000, -0.000000000000000000, -1.000000000000000000 ) ) ;
#231 = CARTESIAN_POINT ( 'NONE',  ( 0.000000000000000000, 0.000000000000000000, 3.000000000000000000 ) ) ;
#232 = EDGE_CURVE ( 'NONE', #196, #217, #246, .T. ) ;
#233 = EDGE_CURVE ( 'NONE', #235, #127, #102, .T. ) ;
#234 = DIRECTION ( 'NONE',  ( 1.000000000000000000, 0.000000000000000000, 0.000000000000000000 ) ) ;
#235 = VERTEX_POINT ( 'NONE', #255 ) ;
#236 = CIRCLE ( 'NONE', #43, 4.000000000000000000 ) ;
#237 = ORIENTED_EDGE ( 'NONE', *, *, #232, .T. ) ;
#238 = VECTOR ( 'NONE', #21, 1000.000000000000000 ) ;
#239 = APPROVAL_PERSON_ORGANIZATION ( #10, #36, #183 ) ;
#240 = ORIENTED_EDGE ( 'NONE', *, *, #93, .T. ) ;
#241 = ORIENTED_EDGE ( 'NONE', *, *, #233, .F. ) ;
#242 = UNCERTAINTY_MEASURE_WITH_UNIT (LENGTH_MEASURE( 1.000000000000000082E-05 ), #141, 'distance_accuracy_value', 'NONE');
#243 = APPROVAL ( #115, 'NEURÈENÝ' ) ;
#244 = EDGE_CURVE ( 'NONE', #217, #196, #138, .T. ) ;
#245 = PERSON_AND_ORGANIZATION ( #65, #224 ) ;
#246 = CIRCLE ( 'NONE', #174, 4.000000000000000000 ) ;
#247 = CARTESIAN_POINT ( 'NONE',  ( -4.000000000000000000, 0.000000000000000000, 0.000000000000000000 ) ) ;
#248 = APPROVAL_DATE_TIME ( #110, #73 ) ;
#249 = DIRECTION ( 'NONE',  ( 0.000000000000000000, 0.000000000000000000, 1.000000000000000000 ) ) ;
#250 = PLANE ( 'NONE',  #113 ) ;
#251 = LOCAL_TIME ( 17, 9, 7.000000000000000000, #162 ) ;
#252 = CALENDAR_DATE ( 2023, 13, 2 ) ;
#253 = FACE_OUTER_BOUND ( 'NONE', #198, .T. ) ;
#254 = PRODUCT_DEFINITION_SHAPE ( 'NONE', 'NONE',  #90 ) ;
#255 = CARTESIAN_POINT ( 'NONE',  ( 2.100000000000000089, 2.571758278209441464E-16, 100.0000000000000000 ) ) ;
ENDSEC;
END-ISO-10303-21;
