ISO-10303-21;
HEADER;
FILE_DESCRIPTION (( 'STEP AP203' ),
    '1' );
FILE_NAME ('e0b0.STEP',
    '2022-07-07T17:35:08',
    ( '' ),
    ( '' ),
    'SwSTEP 2.0',
    'SolidWorks 2019',
    '' );
FILE_SCHEMA (( 'CONFIG_CONTROL_DESIGN' ));
ENDSEC;

DATA;
#1 = CALENDAR_DATE ( 2022, 7, 7 ) ;
#2 = ADVANCED_FACE ( 'NONE', ( #215 ), #56, .T. ) ;
#3 = APPROVAL_PERSON_ORGANIZATION ( #42, #16, #159 ) ;
#4 = MECHANICAL_CONTEXT ( 'NONE', #176, 'mechanical' ) ;
#5 = DIRECTION ( 'NONE',  ( -0.000000000000000000, -0.000000000000000000, -1.000000000000000000 ) ) ;
#6 = ORIENTED_EDGE ( 'NONE', *, *, #218, .T. ) ;
#7 = CARTESIAN_POINT ( 'NONE',  ( -3.750000000000000000, 0.000000000000000000, 130.0000000000000000 ) ) ;
#8 = CARTESIAN_POINT ( 'NONE',  ( 0.000000000000000000, 0.000000000000000000, 130.0000000000000000 ) ) ;
#9 = DESIGN_CONTEXT ( 'detailed design', #208, 'design' ) ;
#10 = DIRECTION ( 'NONE',  ( -1.000000000000000000, 0.000000000000000000, 0.000000000000000000 ) ) ;
#11 = EDGE_CURVE ( 'NONE', #36, #121, #223, .T. ) ;
#12 = DIRECTION ( 'NONE',  ( 1.000000000000000000, 0.000000000000000000, -0.000000000000000000 ) ) ;
#13 = DIRECTION ( 'NONE',  ( 0.000000000000000000, 0.000000000000000000, 1.000000000000000000 ) ) ;
#14 = DIRECTION ( 'NONE',  ( 1.000000000000000000, 0.000000000000000000, 0.000000000000000000 ) ) ;
#15 = ORIENTED_EDGE ( 'NONE', *, *, #29, .F. ) ;
#16 = APPROVAL ( #255, 'NEURÈENÝ' ) ;
#17 = EDGE_LOOP ( 'NONE', ( #49, #137, #227, #76 ) ) ;
#18 = PERSON_AND_ORGANIZATION ( #81, #136 ) ;
#19 = AXIS2_PLACEMENT_3D ( 'NONE', #93, #30, #181 ) ;
#20 = APPLICATION_PROTOCOL_DEFINITION ( 'international standard', 'config_control_design', 1994, #176 ) ;
#21 = DIRECTION ( 'NONE',  ( 0.000000000000000000, 0.000000000000000000, 1.000000000000000000 ) ) ;
#22 = CALENDAR_DATE ( 2022, 7, 7 ) ;
#23 = APPROVAL_PERSON_ORGANIZATION ( #82, #253, #103 ) ;
#24 = DATE_AND_TIME ( #22, #120 ) ;
#25 = ORIENTED_EDGE ( 'NONE', *, *, #126, .T. ) ;
#26 = DIRECTION ( 'NONE',  ( 0.000000000000000000, 0.000000000000000000, 1.000000000000000000 ) ) ;
#27 = DIRECTION ( 'NONE',  ( 1.000000000000000000, 0.000000000000000000, 0.000000000000000000 ) ) ;
#28 = CLOSED_SHELL ( 'NONE', ( #183, #2, #70, #220, #37, #250, #146 ) ) ;
#29 = EDGE_CURVE ( 'NONE', #102, #171, #163, .T. ) ;
#30 = DIRECTION ( 'NONE',  ( 0.000000000000000000, 0.000000000000000000, 1.000000000000000000 ) ) ;
#31 = AXIS2_PLACEMENT_3D ( 'NONE', #99, #216, #234 ) ;
#32 = CARTESIAN_POINT ( 'NONE',  ( 0.000000000000000000, 0.000000000000000000, 5.000000000000000000 ) ) ;
#33 = FACE_OUTER_BOUND ( 'NONE', #177, .T. ) ;
#34 = CYLINDRICAL_SURFACE ( 'NONE', #31, 6.000000000000000888 ) ;
#35 = SECURITY_CLASSIFICATION ( '', '', #236 ) ;
#36 = VERTEX_POINT ( 'NONE', #149 ) ;
#37 = ADVANCED_FACE ( 'NONE', ( #53 ), #173, .F. ) ;
#38 = DATE_AND_TIME ( #119, #74 ) ;
#39 = AXIS2_PLACEMENT_3D ( 'NONE', #32, #13, #212 ) ;
#40 = DIRECTION ( 'NONE',  ( 1.000000000000000000, 0.000000000000000000, 0.000000000000000000 ) ) ;
#41 = COORDINATED_UNIVERSAL_TIME_OFFSET ( 1, 0, .AHEAD. ) ;
#42 = PERSON_AND_ORGANIZATION ( #81, #136 ) ;
#43 = ADVANCED_BREP_SHAPE_REPRESENTATION ( 'e0b0', ( #147, #100 ), #79 ) ;
#44 = EDGE_CURVE ( 'NONE', #121, #36, #237, .T. ) ;
#45 = DIRECTION ( 'NONE',  ( -1.000000000000000000, 0.000000000000000000, 0.000000000000000000 ) ) ;
#46 = PLANE ( 'NONE',  #150 ) ;
#47 = PRODUCT_DEFINITION_SHAPE ( 'NONE', 'NONE',  #243 ) ;
#48 = FACE_OUTER_BOUND ( 'NONE', #134, .T. ) ;
#49 = ORIENTED_EDGE ( 'NONE', *, *, #44, .F. ) ;
#50 = APPROVAL_PERSON_ORGANIZATION ( #64, #58, #219 ) ;
#51 =( LENGTH_UNIT ( ) NAMED_UNIT ( * ) SI_UNIT ( .MILLI., .METRE. ) );
#52 = ORIENTED_EDGE ( 'NONE', *, *, #29, .T. ) ;
#53 = FACE_OUTER_BOUND ( 'NONE', #151, .T. ) ;
#54 = AXIS2_PLACEMENT_3D ( 'NONE', #130, #135, #117 ) ;
#55 = CC_DESIGN_PERSON_AND_ORGANIZATION_ASSIGNMENT ( #61, #155, ( #35 ) ) ;
#56 = CYLINDRICAL_SURFACE ( 'NONE', #85, 6.000000000000000888 ) ;
#57 = ORIENTED_EDGE ( 'NONE', *, *, #204, .T. ) ;
#58 = APPROVAL ( #203, 'NEURÈENÝ' ) ;
#59 = DIRECTION ( 'NONE',  ( 1.000000000000000000, 0.000000000000000000, 0.000000000000000000 ) ) ;
#60 = VERTEX_POINT ( 'NONE', #118 ) ;
#61 = PERSON_AND_ORGANIZATION ( #81, #136 ) ;
#62 = CC_DESIGN_DATE_AND_TIME_ASSIGNMENT ( #174, #158, ( #35 ) ) ;
#63 = VECTOR ( 'NONE', #124, 1000.000000000000000 ) ;
#64 = PERSON_AND_ORGANIZATION ( #81, #136 ) ;
#65 = VERTEX_POINT ( 'NONE', #101 ) ;
#66 = SHAPE_DEFINITION_REPRESENTATION ( #47, #43 ) ;
#67 = CIRCLE ( 'NONE', #157, 6.000000000000000888 ) ;
#68 = FACE_OUTER_BOUND ( 'NONE', #75, .T. ) ;
#69 = DIRECTION ( 'NONE',  ( -0.000000000000000000, -0.000000000000000000, -1.000000000000000000 ) ) ;
#70 = ADVANCED_FACE ( 'NONE', ( #33 ), #34, .T. ) ;
#71 = VERTEX_POINT ( 'NONE', #210 ) ;
#72 = CARTESIAN_POINT ( 'NONE',  ( -3.750000000000000000, 0.000000000000000000, 130.0000000000000000 ) ) ;
#73 = DIRECTION ( 'NONE',  ( -1.000000000000000000, 0.000000000000000000, 0.000000000000000000 ) ) ;
#74 = LOCAL_TIME ( 19, 35, 8.000000000000000000, #139 ) ;
#75 = EDGE_LOOP ( 'NONE', ( #254, #186 ) ) ;
#76 = ORIENTED_EDGE ( 'NONE', *, *, #126, .F. ) ;
#77 = EDGE_CURVE ( 'NONE', #60, #98, #164, .T. ) ;
#78 = DIRECTION ( 'NONE',  ( 1.000000000000000000, 0.000000000000000000, -0.000000000000000000 ) ) ;
#79 =( GEOMETRIC_REPRESENTATION_CONTEXT ( 3 ) GLOBAL_UNCERTAINTY_ASSIGNED_CONTEXT ( ( #133 ) ) GLOBAL_UNIT_ASSIGNED_CONTEXT ( ( #51, #92, #242 ) ) REPRESENTATION_CONTEXT ( 'NONE', 'WORKASPACE' ) );
#80 = CARTESIAN_POINT ( 'NONE',  ( 0.000000000000000000, 0.000000000000000000, 0.000000000000000000 ) ) ;
#81 = PERSON ( 'NEURÈENÝ', 'NEURÈENÝ', 'NEURÈENÝ', ('NEURÈENÝ'), ('NEURÈENÝ'), ('NEURÈENÝ') ) ;
#82 = PERSON_AND_ORGANIZATION ( #81, #136 ) ;
#83 = EDGE_CURVE ( 'NONE', #171, #102, #145, .T. ) ;
#84 = CALENDAR_DATE ( 2022, 7, 7 ) ;
#85 = AXIS2_PLACEMENT_3D ( 'NONE', #194, #249, #73 ) ;
#86 = AXIS2_PLACEMENT_3D ( 'NONE', #141, #26, #89 ) ;
#87 = ORIENTED_EDGE ( 'NONE', *, *, #169, .F. ) ;
#88 = PERSON_AND_ORGANIZATION ( #81, #136 ) ;
#89 = DIRECTION ( 'NONE',  ( 1.000000000000000000, 0.000000000000000000, -0.000000000000000000 ) ) ;
#90 = CARTESIAN_POINT ( 'NONE',  ( 3.750000000000000000, 4.592425496802573972E-16, 5.000000000000000000 ) ) ;
#91 = PRODUCT ( 'e0b0', 'e0b0', '', ( #4 ) ) ;
#92 =( NAMED_UNIT ( * ) PLANE_ANGLE_UNIT ( ) SI_UNIT ( $, .RADIAN. ) );
#93 = CARTESIAN_POINT ( 'NONE',  ( 0.000000000000000000, 0.000000000000000000, 5.000000000000000000 ) ) ;
#94 = LINE ( 'NONE', #7, #63 ) ;
#95 = ORIENTED_EDGE ( 'NONE', *, *, #77, .F. ) ;
#96 = EDGE_CURVE ( 'NONE', #71, #65, #214, .T. ) ;
#97 = ORIENTED_EDGE ( 'NONE', *, *, #83, .F. ) ;
#98 = VERTEX_POINT ( 'NONE', #90 ) ;
#99 = CARTESIAN_POINT ( 'NONE',  ( 0.000000000000000000, 0.000000000000000000, 5.000000000000000000 ) ) ;
#100 = AXIS2_PLACEMENT_3D ( 'NONE', #80, #21, #40 ) ;
#101 = CARTESIAN_POINT ( 'NONE',  ( 6.000000000000000888, 7.347880794884120722E-16, 0.000000000000000000 ) ) ;
#102 = VERTEX_POINT ( 'NONE', #72 ) ;
#103 = APPROVAL_ROLE ( '' ) ;
#104 = VECTOR ( 'NONE', #5, 1000.000000000000000 ) ;
#105 = APPROVAL_DATE_TIME ( #107, #253 ) ;
#106 = PERSON_AND_ORGANIZATION ( #81, #136 ) ;
#107 = DATE_AND_TIME ( #84, #148 ) ;
#108 = CARTESIAN_POINT ( 'NONE',  ( 0.000000000000000000, 0.000000000000000000, 5.000000000000000000 ) ) ;
#109 = CC_DESIGN_APPROVAL ( #253, ( #166 ) ) ;
#110 = DIRECTION ( 'NONE',  ( 1.000000000000000000, 0.000000000000000000, 0.000000000000000000 ) ) ;
#111 = CARTESIAN_POINT ( 'NONE',  ( 0.000000000000000000, 0.000000000000000000, 0.000000000000000000 ) ) ;
#112 = ORIENTED_EDGE ( 'NONE', *, *, #77, .T. ) ;
#113 = EDGE_CURVE ( 'NONE', #102, #60, #94, .T. ) ;
#114 = DIRECTION ( 'NONE',  ( 0.000000000000000000, 0.000000000000000000, 1.000000000000000000 ) ) ;
#115 = CC_DESIGN_APPROVAL ( #58, ( #35 ) ) ;
#116 = DIRECTION ( 'NONE',  ( 0.000000000000000000, 0.000000000000000000, 1.000000000000000000 ) ) ;
#117 = DIRECTION ( 'NONE',  ( 1.000000000000000000, 0.000000000000000000, 0.000000000000000000 ) ) ;
#118 = CARTESIAN_POINT ( 'NONE',  ( -3.750000000000000000, 0.000000000000000000, 5.000000000000000000 ) ) ;
#119 = CALENDAR_DATE ( 2022, 7, 7 ) ;
#120 = LOCAL_TIME ( 19, 35, 8.000000000000000000, #41 ) ;
#121 = VERTEX_POINT ( 'NONE', #247 ) ;
#122 = COORDINATED_UNIVERSAL_TIME_OFFSET ( 1, 0, .AHEAD. ) ;
#123 = PERSON_AND_ORGANIZATION ( #81, #136 ) ;
#124 = DIRECTION ( 'NONE',  ( -0.000000000000000000, -0.000000000000000000, -1.000000000000000000 ) ) ;
#125 = LINE ( 'NONE', #205, #206 ) ;
#126 = EDGE_CURVE ( 'NONE', #36, #71, #167, .T. ) ;
#127 = LOCAL_TIME ( 19, 35, 8.000000000000000000, #138 ) ;
#128 = CYLINDRICAL_SURFACE ( 'NONE', #246, 3.750000000000000000 ) ;
#129 = DIRECTION ( 'NONE',  ( 0.000000000000000000, 0.000000000000000000, 1.000000000000000000 ) ) ;
#130 = CARTESIAN_POINT ( 'NONE',  ( 0.000000000000000000, 0.000000000000000000, 130.0000000000000000 ) ) ;
#131 = LOCAL_TIME ( 19, 35, 8.000000000000000000, #179 ) ;
#132 = EDGE_LOOP ( 'NONE', ( #95, #248 ) ) ;
#133 = UNCERTAINTY_MEASURE_WITH_UNIT (LENGTH_MEASURE( 1.000000000000000082E-05 ), #51, 'distance_accuracy_value', 'NONE');
#134 = EDGE_LOOP ( 'NONE', ( #232, #15, #168, #112 ) ) ;
#135 = DIRECTION ( 'NONE',  ( 0.000000000000000000, 0.000000000000000000, 1.000000000000000000 ) ) ;
#136 = ORGANIZATION ( 'NEURÈENÝ', 'NEURÈENÝ', '' ) ;
#137 = ORIENTED_EDGE ( 'NONE', *, *, #169, .T. ) ;
#138 = COORDINATED_UNIVERSAL_TIME_OFFSET ( 1, 0, .AHEAD. ) ;
#139 = COORDINATED_UNIVERSAL_TIME_OFFSET ( 1, 0, .AHEAD. ) ;
#140 = PERSON_AND_ORGANIZATION_ROLE ( 'creator' ) ;
#141 = CARTESIAN_POINT ( 'NONE',  ( 0.000000000000000000, 0.000000000000000000, 130.0000000000000000 ) ) ;
#142 = CC_DESIGN_PERSON_AND_ORGANIZATION_ASSIGNMENT ( #18, #201, ( #166 ) ) ;
#143 = CARTESIAN_POINT ( 'NONE',  ( 0.000000000000000000, 0.000000000000000000, 130.0000000000000000 ) ) ;
#144 = FACE_OUTER_BOUND ( 'NONE', #192, .T. ) ;
#145 = CIRCLE ( 'NONE', #209, 3.750000000000000000 ) ;
#146 = ADVANCED_FACE ( 'NONE', ( #165 ), #207, .T. ) ;
#147 = MANIFOLD_SOLID_BREP ( 'Pøidat vysunutím3', #28 ) ;
#148 = LOCAL_TIME ( 19, 35, 8.000000000000000000, #122 ) ;
#149 = CARTESIAN_POINT ( 'NONE',  ( -6.000000000000000888, 0.000000000000000000, 5.000000000000000000 ) ) ;
#150 = AXIS2_PLACEMENT_3D ( 'NONE', #108, #184, #12 ) ;
#151 = EDGE_LOOP ( 'NONE', ( #152, #188 ) ) ;
#152 = ORIENTED_EDGE ( 'NONE', *, *, #96, .F. ) ;
#153 = CARTESIAN_POINT ( 'NONE',  ( 0.000000000000000000, 0.000000000000000000, 130.0000000000000000 ) ) ;
#154 = VECTOR ( 'NONE', #162, 1000.000000000000000 ) ;
#155 = PERSON_AND_ORGANIZATION_ROLE ( 'classification_officer' ) ;
#156 = PERSON_AND_ORGANIZATION_ROLE ( 'creator' ) ;
#157 = AXIS2_PLACEMENT_3D ( 'NONE', #111, #129, #110 ) ;
#158 = DATE_TIME_ROLE ( 'classification_date' ) ;
#159 = APPROVAL_ROLE ( '' ) ;
#160 = CC_DESIGN_PERSON_AND_ORGANIZATION_ASSIGNMENT ( #123, #156, ( #166 ) ) ;
#161 = ORIENTED_EDGE ( 'NONE', *, *, #83, .T. ) ;
#162 = DIRECTION ( 'NONE',  ( -0.000000000000000000, -0.000000000000000000, -1.000000000000000000 ) ) ;
#163 = CIRCLE ( 'NONE', #54, 3.750000000000000000 ) ;
#164 = CIRCLE ( 'NONE', #190, 3.750000000000000000 ) ;
#165 = FACE_OUTER_BOUND ( 'NONE', #200, .T. ) ;
#166 = PRODUCT_DEFINITION_FORMATION_WITH_SPECIFIED_SOURCE ( 'LIBOVOLNÝ', '', #91, .NOT_KNOWN. ) ;
#167 = LINE ( 'NONE', #244, #154 ) ;
#168 = ORIENTED_EDGE ( 'NONE', *, *, #113, .T. ) ;
#169 = EDGE_CURVE ( 'NONE', #121, #65, #225, .T. ) ;
#170 = CIRCLE ( 'NONE', #19, 3.750000000000000000 ) ;
#171 = VERTEX_POINT ( 'NONE', #185 ) ;
#172 = CARTESIAN_POINT ( 'NONE',  ( 0.000000000000000000, 0.000000000000000000, 5.000000000000000000 ) ) ;
#173 = PLANE ( 'NONE',  #197 ) ;
#174 = DATE_AND_TIME ( #1, #127 ) ;
#175 = DATE_TIME_ROLE ( 'creation_date' ) ;
#176 = APPLICATION_CONTEXT ( 'configuration controlled 3d designs of mechanical parts and assemblies' ) ;
#177 = EDGE_LOOP ( 'NONE', ( #87, #189, #25, #195 ) ) ;
#178 = CC_DESIGN_DATE_AND_TIME_ASSIGNMENT ( #38, #175, ( #243 ) ) ;
#179 = COORDINATED_UNIVERSAL_TIME_OFFSET ( 1, 0, .AHEAD. ) ;
#180 = ORIENTED_EDGE ( 'NONE', *, *, #113, .F. ) ;
#181 = DIRECTION ( 'NONE',  ( 1.000000000000000000, 0.000000000000000000, 0.000000000000000000 ) ) ;
#182 = AXIS2_PLACEMENT_3D ( 'NONE', #251, #114, #27 ) ;
#183 = ADVANCED_FACE ( 'NONE', ( #144 ), #241, .T. ) ;
#184 = DIRECTION ( 'NONE',  ( 0.000000000000000000, 0.000000000000000000, 1.000000000000000000 ) ) ;
#185 = CARTESIAN_POINT ( 'NONE',  ( 3.750000000000000000, 4.592425496802573972E-16, 130.0000000000000000 ) ) ;
#186 = ORIENTED_EDGE ( 'NONE', *, *, #44, .T. ) ;
#187 = FACE_BOUND ( 'NONE', #132, .T. ) ;
#188 = ORIENTED_EDGE ( 'NONE', *, *, #211, .F. ) ;
#189 = ORIENTED_EDGE ( 'NONE', *, *, #11, .F. ) ;
#190 = AXIS2_PLACEMENT_3D ( 'NONE', #172, #116, #252 ) ;
#191 = DIRECTION ( 'NONE',  ( 0.000000000000000000, 0.000000000000000000, 1.000000000000000000 ) ) ;
#192 = EDGE_LOOP ( 'NONE', ( #97, #6, #57, #180 ) ) ;
#193 = CC_DESIGN_APPROVAL ( #16, ( #243 ) ) ;
#194 = CARTESIAN_POINT ( 'NONE',  ( 0.000000000000000000, 0.000000000000000000, 5.000000000000000000 ) ) ;
#195 = ORIENTED_EDGE ( 'NONE', *, *, #96, .T. ) ;
#196 = DATE_AND_TIME ( #235, #131 ) ;
#197 = AXIS2_PLACEMENT_3D ( 'NONE', #231, #213, #78 ) ;
#198 = APPROVAL_STATUS ( 'not_yet_approved' ) ;
#199 = PERSON_AND_ORGANIZATION_ROLE ( 'design_owner' ) ;
#200 = EDGE_LOOP ( 'NONE', ( #52, #161 ) ) ;
#201 = PERSON_AND_ORGANIZATION_ROLE ( 'design_supplier' ) ;
#202 = PRODUCT_RELATED_PRODUCT_CATEGORY ( 'detail', '', ( #91 ) ) ;
#203 = APPROVAL_STATUS ( 'not_yet_approved' ) ;
#204 = EDGE_CURVE ( 'NONE', #98, #60, #170, .T. ) ;
#205 = CARTESIAN_POINT ( 'NONE',  ( 3.750000000000000000, 4.592425496802573972E-16, 130.0000000000000000 ) ) ;
#206 = VECTOR ( 'NONE', #222, 1000.000000000000000 ) ;
#207 = PLANE ( 'NONE',  #86 ) ;
#208 = APPLICATION_CONTEXT ( 'configuration controlled 3d designs of mechanical parts and assemblies' ) ;
#209 = AXIS2_PLACEMENT_3D ( 'NONE', #153, #191, #14 ) ;
#210 = CARTESIAN_POINT ( 'NONE',  ( -6.000000000000000888, 0.000000000000000000, 0.000000000000000000 ) ) ;
#211 = EDGE_CURVE ( 'NONE', #65, #71, #67, .T. ) ;
#212 = DIRECTION ( 'NONE',  ( 1.000000000000000000, 0.000000000000000000, 0.000000000000000000 ) ) ;
#213 = DIRECTION ( 'NONE',  ( 0.000000000000000000, 0.000000000000000000, 1.000000000000000000 ) ) ;
#214 = CIRCLE ( 'NONE', #182, 6.000000000000000888 ) ;
#215 = FACE_OUTER_BOUND ( 'NONE', #17, .T. ) ;
#216 = DIRECTION ( 'NONE',  ( -0.000000000000000000, -0.000000000000000000, -1.000000000000000000 ) ) ;
#217 = APPROVAL_DATE_TIME ( #196, #16 ) ;
#218 = EDGE_CURVE ( 'NONE', #171, #98, #125, .T. ) ;
#219 = APPROVAL_ROLE ( '' ) ;
#220 = ADVANCED_FACE ( 'NONE', ( #187, #68 ), #46, .T. ) ;
#221 = DIRECTION ( 'NONE',  ( -0.000000000000000000, -0.000000000000000000, -1.000000000000000000 ) ) ;
#222 = DIRECTION ( 'NONE',  ( -0.000000000000000000, -0.000000000000000000, -1.000000000000000000 ) ) ;
#223 = CIRCLE ( 'NONE', #245, 6.000000000000000888 ) ;
#224 = CC_DESIGN_SECURITY_CLASSIFICATION ( #35, ( #166 ) ) ;
#225 = LINE ( 'NONE', #240, #104 ) ;
#226 = CC_DESIGN_PERSON_AND_ORGANIZATION_ASSIGNMENT ( #106, #140, ( #243 ) ) ;
#227 = ORIENTED_EDGE ( 'NONE', *, *, #211, .T. ) ;
#228 = DIRECTION ( 'NONE',  ( 0.000000000000000000, 0.000000000000000000, 1.000000000000000000 ) ) ;
#229 = CC_DESIGN_PERSON_AND_ORGANIZATION_ASSIGNMENT ( #88, #199, ( #91 ) ) ;
#230 = AXIS2_PLACEMENT_3D ( 'NONE', #143, #69, #10 ) ;
#231 = CARTESIAN_POINT ( 'NONE',  ( 0.000000000000000000, 0.000000000000000000, 0.000000000000000000 ) ) ;
#232 = ORIENTED_EDGE ( 'NONE', *, *, #218, .F. ) ;
#233 = CARTESIAN_POINT ( 'NONE',  ( 0.000000000000000000, 0.000000000000000000, 5.000000000000000000 ) ) ;
#234 = DIRECTION ( 'NONE',  ( -1.000000000000000000, 0.000000000000000000, 0.000000000000000000 ) ) ;
#235 = CALENDAR_DATE ( 2022, 7, 7 ) ;
#236 = SECURITY_CLASSIFICATION_LEVEL ( 'unclassified' ) ;
#237 = CIRCLE ( 'NONE', #39, 6.000000000000000888 ) ;
#238 = APPLICATION_PROTOCOL_DEFINITION ( 'international standard', 'config_control_design', 1994, #208 ) ;
#239 = APPROVAL_DATE_TIME ( #24, #58 ) ;
#240 = CARTESIAN_POINT ( 'NONE',  ( 6.000000000000000888, 7.347880794884120722E-16, 5.000000000000000000 ) ) ;
#241 = CYLINDRICAL_SURFACE ( 'NONE', #230, 3.750000000000000000 ) ;
#242 =( NAMED_UNIT ( * ) SI_UNIT ( $, .STERADIAN. ) SOLID_ANGLE_UNIT ( ) );
#243 = PRODUCT_DEFINITION ( 'NEZNÁMÝ', '', #166, #9 ) ;
#244 = CARTESIAN_POINT ( 'NONE',  ( -6.000000000000000888, 0.000000000000000000, 5.000000000000000000 ) ) ;
#245 = AXIS2_PLACEMENT_3D ( 'NONE', #233, #228, #59 ) ;
#246 = AXIS2_PLACEMENT_3D ( 'NONE', #8, #221, #45 ) ;
#247 = CARTESIAN_POINT ( 'NONE',  ( 6.000000000000000888, 7.347880794884120722E-16, 5.000000000000000000 ) ) ;
#248 = ORIENTED_EDGE ( 'NONE', *, *, #204, .F. ) ;
#249 = DIRECTION ( 'NONE',  ( -0.000000000000000000, -0.000000000000000000, -1.000000000000000000 ) ) ;
#250 = ADVANCED_FACE ( 'NONE', ( #48 ), #128, .T. ) ;
#251 = CARTESIAN_POINT ( 'NONE',  ( 0.000000000000000000, 0.000000000000000000, 0.000000000000000000 ) ) ;
#252 = DIRECTION ( 'NONE',  ( 1.000000000000000000, 0.000000000000000000, 0.000000000000000000 ) ) ;
#253 = APPROVAL ( #198, 'NEURÈENÝ' ) ;
#254 = ORIENTED_EDGE ( 'NONE', *, *, #11, .T. ) ;
#255 = APPROVAL_STATUS ( 'not_yet_approved' ) ;
ENDSEC;
END-ISO-10303-21;
