ISO-10303-21;
HEADER;
FILE_DESCRIPTION (( 'STEP AP203' ),
    '1' );
FILE_NAME ('bbd2.STEP',
    '2022-07-07T17:57:29',
    ( '' ),
    ( '' ),
    'SwSTEP 2.0',
    'SolidWorks 2019',
    '' );
FILE_SCHEMA (( 'CONFIG_CONTROL_DESIGN' ));
ENDSEC;

DATA;
#1 = ADVANCED_FACE ( 'NONE', ( #127 ), #202, .T. ) ;
#2 = UNCERTAINTY_MEASURE_WITH_UNIT (LENGTH_MEASURE( 1.000000000000000082E-05 ), #216, 'distance_accuracy_value', 'NONE');
#3 = AXIS2_PLACEMENT_3D ( 'NONE', #25, #23, #45 ) ;
#4 = CYLINDRICAL_SURFACE ( 'NONE', #169, 3.000000000000000444 ) ;
#5 = ORIENTED_EDGE ( 'NONE', *, *, #241, .F. ) ;
#6 = CARTESIAN_POINT ( 'NONE',  ( 0.000000000000000000, 0.000000000000000000, 3.000000000000000000 ) ) ;
#7 = CARTESIAN_POINT ( 'NONE',  ( 0.000000000000000000, 0.000000000000000000, 3.000000000000000000 ) ) ;
#8 = DIRECTION ( 'NONE',  ( -0.000000000000000000, -0.000000000000000000, -1.000000000000000000 ) ) ;
#9 = EDGE_CURVE ( 'NONE', #10, #62, #101, .T. ) ;
#10 = VERTEX_POINT ( 'NONE', #237 ) ;
#11 = LOCAL_TIME ( 19, 57, 29.00000000000000000, #195 ) ;
#12 = PRODUCT_DEFINITION_SHAPE ( 'NONE', 'NONE',  #22 ) ;
#13 = DATE_TIME_ROLE ( 'classification_date' ) ;
#14 = CARTESIAN_POINT ( 'NONE',  ( 0.000000000000000000, 0.000000000000000000, 3.000000000000000000 ) ) ;
#15 = DIRECTION ( 'NONE',  ( 1.000000000000000000, 0.000000000000000000, -0.000000000000000000 ) ) ;
#16 = DATE_AND_TIME ( #253, #11 ) ;
#17 = CARTESIAN_POINT ( 'NONE',  ( 0.000000000000000000, 0.000000000000000000, 103.0000000000000142 ) ) ;
#18 = APPROVAL_ROLE ( '' ) ;
#19 = DIRECTION ( 'NONE',  ( 1.000000000000000000, 0.000000000000000000, 0.000000000000000000 ) ) ;
#20 = APPROVAL ( #173, 'NEURÈENÝ' ) ;
#21 = LOCAL_TIME ( 19, 57, 29.00000000000000000, #160 ) ;
#22 = PRODUCT_DEFINITION ( 'NEZNÁMÝ', '', #233, #47 ) ;
#23 = DIRECTION ( 'NONE',  ( 0.000000000000000000, 0.000000000000000000, 1.000000000000000000 ) ) ;
#24 = ORIENTED_EDGE ( 'NONE', *, *, #41, .T. ) ;
#25 = CARTESIAN_POINT ( 'NONE',  ( 0.000000000000000000, 0.000000000000000000, 0.000000000000000000 ) ) ;
#26 = DIRECTION ( 'NONE',  ( -0.000000000000000000, -0.000000000000000000, -1.000000000000000000 ) ) ;
#27 = VECTOR ( 'NONE', #246, 1000.000000000000000 ) ;
#28 = EDGE_CURVE ( 'NONE', #129, #124, #177, .T. ) ;
#29 =( NAMED_UNIT ( * ) SI_UNIT ( $, .STERADIAN. ) SOLID_ANGLE_UNIT ( ) );
#30 = ORIENTED_EDGE ( 'NONE', *, *, #158, .T. ) ;
#31 = MECHANICAL_CONTEXT ( 'NONE', #86, 'mechanical' ) ;
#32 = VERTEX_POINT ( 'NONE', #212 ) ;
#33 = APPROVAL_PERSON_ORGANIZATION ( #247, #20, #18 ) ;
#34 = PERSON_AND_ORGANIZATION_ROLE ( 'classification_officer' ) ;
#35 = CARTESIAN_POINT ( 'NONE',  ( -3.000000000000000444, 0.000000000000000000, 0.000000000000000000 ) ) ;
#36 = CARTESIAN_POINT ( 'NONE',  ( 1.500000000000000222, 1.836970198721030181E-16, 3.000000000000000000 ) ) ;
#37 = APPROVAL_ROLE ( '' ) ;
#38 = APPROVAL_PERSON_ORGANIZATION ( #52, #159, #199 ) ;
#39 = CARTESIAN_POINT ( 'NONE',  ( -1.500000000000000222, 0.000000000000000000, 3.000000000000000000 ) ) ;
#40 = LINE ( 'NONE', #56, #126 ) ;
#41 = EDGE_CURVE ( 'NONE', #66, #85, #153, .T. ) ;
#42 = AXIS2_PLACEMENT_3D ( 'NONE', #99, #210, #135 ) ;
#43 = CIRCLE ( 'NONE', #73, 1.500000000000000222 ) ;
#44 = AXIS2_PLACEMENT_3D ( 'NONE', #168, #167, #170 ) ;
#45 = DIRECTION ( 'NONE',  ( 1.000000000000000000, 0.000000000000000000, -0.000000000000000000 ) ) ;
#46 = ORIENTED_EDGE ( 'NONE', *, *, #207, .T. ) ;
#47 = DESIGN_CONTEXT ( 'detailed design', #100, 'design' ) ;
#48 = DATE_AND_TIME ( #144, #21 ) ;
#49 = ORIENTED_EDGE ( 'NONE', *, *, #28, .T. ) ;
#50 = EDGE_LOOP ( 'NONE', ( #245, #219, #225, #89 ) ) ;
#51 = ORIENTED_EDGE ( 'NONE', *, *, #215, .T. ) ;
#52 = PERSON_AND_ORGANIZATION ( #234, #102 ) ;
#53 = EDGE_LOOP ( 'NONE', ( #107, #51, #30, #5 ) ) ;
#54 = PLANE ( 'NONE',  #180 ) ;
#55 = CARTESIAN_POINT ( 'NONE',  ( -1.500000000000000222, 0.000000000000000000, 103.0000000000000142 ) ) ;
#56 = CARTESIAN_POINT ( 'NONE',  ( 3.000000000000000444, 3.673940397442060361E-16, 3.000000000000000000 ) ) ;
#57 = PERSON_AND_ORGANIZATION ( #234, #102 ) ;
#58 = APPROVAL_PERSON_ORGANIZATION ( #184, #120, #37 ) ;
#59 = CARTESIAN_POINT ( 'NONE',  ( 0.000000000000000000, 0.000000000000000000, 0.000000000000000000 ) ) ;
#60 = ADVANCED_BREP_SHAPE_REPRESENTATION ( 'bbd2', ( #157, #140 ), #238 ) ;
#61 = ADVANCED_FACE ( 'NONE', ( #252 ), #138, .T. ) ;
#62 = VERTEX_POINT ( 'NONE', #250 ) ;
#63 = SECURITY_CLASSIFICATION ( '', '', #249 ) ;
#64 = VERTEX_POINT ( 'NONE', #39 ) ;
#65 = DATE_TIME_ROLE ( 'creation_date' ) ;
#66 = VERTEX_POINT ( 'NONE', #208 ) ;
#67 = AXIS2_PLACEMENT_3D ( 'NONE', #92, #72, #19 ) ;
#68 = PERSON_AND_ORGANIZATION_ROLE ( 'design_owner' ) ;
#69 = ORIENTED_EDGE ( 'NONE', *, *, #91, .F. ) ;
#70 = AXIS2_PLACEMENT_3D ( 'NONE', #114, #95, #248 ) ;
#71 = CC_DESIGN_PERSON_AND_ORGANIZATION_ASSIGNMENT ( #57, #34, ( #63 ) ) ;
#72 = DIRECTION ( 'NONE',  ( 0.000000000000000000, 0.000000000000000000, 1.000000000000000000 ) ) ;
#73 = AXIS2_PLACEMENT_3D ( 'NONE', #205, #221, #186 ) ;
#74 = DIRECTION ( 'NONE',  ( 0.000000000000000000, 0.000000000000000000, 1.000000000000000000 ) ) ;
#75 = AXIS2_PLACEMENT_3D ( 'NONE', #7, #87, #162 ) ;
#76 = DIRECTION ( 'NONE',  ( 1.000000000000000000, 0.000000000000000000, 0.000000000000000000 ) ) ;
#77 = CARTESIAN_POINT ( 'NONE',  ( 0.000000000000000000, 0.000000000000000000, 3.000000000000000000 ) ) ;
#78 = FACE_OUTER_BOUND ( 'NONE', #103, .T. ) ;
#79 = CC_DESIGN_PERSON_AND_ORGANIZATION_ASSIGNMENT ( #230, #244, ( #233 ) ) ;
#80 = CIRCLE ( 'NONE', #164, 1.500000000000000222 ) ;
#81 = CIRCLE ( 'NONE', #142, 1.500000000000000222 ) ;
#82 = EDGE_CURVE ( 'NONE', #32, #66, #81, .T. ) ;
#83 = LOCAL_TIME ( 19, 57, 29.00000000000000000, #188 ) ;
#84 = PLANE ( 'NONE',  #3 ) ;
#85 = VERTEX_POINT ( 'NONE', #36 ) ;
#86 = APPLICATION_CONTEXT ( 'configuration controlled 3d designs of mechanical parts and assemblies' ) ;
#87 = DIRECTION ( 'NONE',  ( 0.000000000000000000, 0.000000000000000000, 1.000000000000000000 ) ) ;
#88 = LOCAL_TIME ( 19, 57, 29.00000000000000000, #224 ) ;
#89 = ORIENTED_EDGE ( 'NONE', *, *, #178, .T. ) ;
#90 = EDGE_LOOP ( 'NONE', ( #240, #235 ) ) ;
#91 = EDGE_CURVE ( 'NONE', #32, #64, #97, .T. ) ;
#92 = CARTESIAN_POINT ( 'NONE',  ( 0.000000000000000000, 0.000000000000000000, 0.000000000000000000 ) ) ;
#93 = APPROVAL_DATE_TIME ( #251, #20 ) ;
#94 = DIRECTION ( 'NONE',  ( 1.000000000000000000, 0.000000000000000000, 0.000000000000000000 ) ) ;
#95 = DIRECTION ( 'NONE',  ( -0.000000000000000000, -0.000000000000000000, -1.000000000000000000 ) ) ;
#96 = CALENDAR_DATE ( 2022, 7, 7 ) ;
#97 = LINE ( 'NONE', #55, #242 ) ;
#98 = SHAPE_DEFINITION_REPRESENTATION ( #12, #60 ) ;
#99 = CARTESIAN_POINT ( 'NONE',  ( 0.000000000000000000, 0.000000000000000000, 3.000000000000000000 ) ) ;
#100 = APPLICATION_CONTEXT ( 'configuration controlled 3d designs of mechanical parts and assemblies' ) ;
#101 = CIRCLE ( 'NONE', #75, 3.000000000000000444 ) ;
#102 = ORGANIZATION ( 'NEURÈENÝ', 'NEURÈENÝ', '' ) ;
#103 = EDGE_LOOP ( 'NONE', ( #151, #200 ) ) ;
#104 = APPLICATION_PROTOCOL_DEFINITION ( 'international standard', 'config_control_design', 1994, #100 ) ;
#105 = DIRECTION ( 'NONE',  ( -1.000000000000000000, 0.000000000000000000, 0.000000000000000000 ) ) ;
#106 = DATE_AND_TIME ( #163, #88 ) ;
#107 = ORIENTED_EDGE ( 'NONE', *, *, #108, .F. ) ;
#108 = EDGE_CURVE ( 'NONE', #62, #10, #220, .T. ) ;
#109 = CIRCLE ( 'NONE', #197, 1.500000000000000222 ) ;
#110 = PERSON_AND_ORGANIZATION ( #234, #102 ) ;
#111 = DIRECTION ( 'NONE',  ( 0.000000000000000000, 0.000000000000000000, 1.000000000000000000 ) ) ;
#112 = PERSON_AND_ORGANIZATION_ROLE ( 'design_supplier' ) ;
#113 = CC_DESIGN_PERSON_AND_ORGANIZATION_ASSIGNMENT ( #239, #181, ( #22 ) ) ;
#114 = CARTESIAN_POINT ( 'NONE',  ( 0.000000000000000000, 0.000000000000000000, 103.0000000000000142 ) ) ;
#115 = APPROVAL_STATUS ( 'not_yet_approved' ) ;
#116 = VECTOR ( 'NONE', #8, 1000.000000000000000 ) ;
#117 = CARTESIAN_POINT ( 'NONE',  ( 1.500000000000000222, 1.836970198721030181E-16, 103.0000000000000142 ) ) ;
#118 = CALENDAR_DATE ( 2022, 7, 7 ) ;
#119 = FACE_OUTER_BOUND ( 'NONE', #150, .T. ) ;
#120 = APPROVAL ( #115, 'NEURÈENÝ' ) ;
#121 = CLOSED_SHELL ( 'NONE', ( #61, #1, #223, #194, #232, #139, #134 ) ) ;
#122 = CC_DESIGN_DATE_AND_TIME_ASSIGNMENT ( #190, #13, ( #63 ) ) ;
#123 = CC_DESIGN_APPROVAL ( #159, ( #22 ) ) ;
#124 = VERTEX_POINT ( 'NONE', #209 ) ;
#125 = DIRECTION ( 'NONE',  ( 1.000000000000000000, 0.000000000000000000, 0.000000000000000000 ) ) ;
#126 = VECTOR ( 'NONE', #136, 1000.000000000000000 ) ;
#127 = FACE_OUTER_BOUND ( 'NONE', #53, .T. ) ;
#128 = APPROVAL_DATE_TIME ( #106, #159 ) ;
#129 = VERTEX_POINT ( 'NONE', #35 ) ;
#130 = ORIENTED_EDGE ( 'NONE', *, *, #28, .F. ) ;
#131 =( NAMED_UNIT ( * ) PLANE_ANGLE_UNIT ( ) SI_UNIT ( $, .RADIAN. ) );
#132 = EDGE_LOOP ( 'NONE', ( #187, #24, #46, #69 ) ) ;
#133 = FACE_OUTER_BOUND ( 'NONE', #90, .T. ) ;
#134 = ADVANCED_FACE ( 'NONE', ( #133 ), #54, .T. ) ;
#135 = DIRECTION ( 'NONE',  ( 1.000000000000000000, 0.000000000000000000, 0.000000000000000000 ) ) ;
#136 = DIRECTION ( 'NONE',  ( -0.000000000000000000, -0.000000000000000000, -1.000000000000000000 ) ) ;
#137 = AXIS2_PLACEMENT_3D ( 'NONE', #14, #154, #15 ) ;
#138 = CYLINDRICAL_SURFACE ( 'NONE', #44, 1.500000000000000222 ) ;
#139 = ADVANCED_FACE ( 'NONE', ( #228 ), #175, .T. ) ;
#140 = AXIS2_PLACEMENT_3D ( 'NONE', #243, #165, #125 ) ;
#141 = CC_DESIGN_DATE_AND_TIME_ASSIGNMENT ( #48, #65, ( #22 ) ) ;
#142 = AXIS2_PLACEMENT_3D ( 'NONE', #152, #227, #76 ) ;
#143 = EDGE_LOOP ( 'NONE', ( #130, #182 ) ) ;
#144 = CALENDAR_DATE ( 2022, 7, 7 ) ;
#145 = ORIENTED_EDGE ( 'NONE', *, *, #9, .F. ) ;
#146 = APPLICATION_PROTOCOL_DEFINITION ( 'international standard', 'config_control_design', 1994, #86 ) ;
#147 = ORIENTED_EDGE ( 'NONE', *, *, #241, .T. ) ;
#148 = CC_DESIGN_PERSON_AND_ORGANIZATION_ASSIGNMENT ( #218, #68, ( #176 ) ) ;
#149 = LINE ( 'NONE', #185, #116 ) ;
#150 = EDGE_LOOP ( 'NONE', ( #166, #145, #147, #49 ) ) ;
#151 = ORIENTED_EDGE ( 'NONE', *, *, #9, .T. ) ;
#152 = CARTESIAN_POINT ( 'NONE',  ( 0.000000000000000000, 0.000000000000000000, 103.0000000000000142 ) ) ;
#153 = LINE ( 'NONE', #117, #27 ) ;
#154 = DIRECTION ( 'NONE',  ( 0.000000000000000000, 0.000000000000000000, 1.000000000000000000 ) ) ;
#155 = DIRECTION ( 'NONE',  ( -0.000000000000000000, -0.000000000000000000, -1.000000000000000000 ) ) ;
#156 = LOCAL_TIME ( 19, 57, 29.00000000000000000, #171 ) ;
#157 = MANIFOLD_SOLID_BREP ( 'Pøidat vysunutím3', #121 ) ;
#158 = EDGE_CURVE ( 'NONE', #124, #129, #198, .T. ) ;
#159 = APPROVAL ( #203, 'NEURÈENÝ' ) ;
#160 = COORDINATED_UNIVERSAL_TIME_OFFSET ( 1, 0, .AHEAD. ) ;
#161 = DIRECTION ( 'NONE',  ( -1.000000000000000000, 0.000000000000000000, 0.000000000000000000 ) ) ;
#162 = DIRECTION ( 'NONE',  ( 1.000000000000000000, 0.000000000000000000, 0.000000000000000000 ) ) ;
#163 = CALENDAR_DATE ( 2022, 7, 7 ) ;
#164 = AXIS2_PLACEMENT_3D ( 'NONE', #191, #193, #172 ) ;
#165 = DIRECTION ( 'NONE',  ( 0.000000000000000000, 0.000000000000000000, 1.000000000000000000 ) ) ;
#166 = ORIENTED_EDGE ( 'NONE', *, *, #215, .F. ) ;
#167 = DIRECTION ( 'NONE',  ( -0.000000000000000000, -0.000000000000000000, -1.000000000000000000 ) ) ;
#168 = CARTESIAN_POINT ( 'NONE',  ( 0.000000000000000000, 0.000000000000000000, 103.0000000000000142 ) ) ;
#169 = AXIS2_PLACEMENT_3D ( 'NONE', #6, #201, #161 ) ;
#170 = DIRECTION ( 'NONE',  ( -1.000000000000000000, 0.000000000000000000, 0.000000000000000000 ) ) ;
#171 = COORDINATED_UNIVERSAL_TIME_OFFSET ( 1, 0, .AHEAD. ) ;
#172 = DIRECTION ( 'NONE',  ( 1.000000000000000000, 0.000000000000000000, 0.000000000000000000 ) ) ;
#173 = APPROVAL_STATUS ( 'not_yet_approved' ) ;
#174 = CC_DESIGN_PERSON_AND_ORGANIZATION_ASSIGNMENT ( #110, #112, ( #233 ) ) ;
#175 = CYLINDRICAL_SURFACE ( 'NONE', #70, 1.500000000000000222 ) ;
#176 = PRODUCT ( 'bbd2', 'bbd2', '', ( #31 ) ) ;
#177 = CIRCLE ( 'NONE', #67, 3.000000000000000444 ) ;
#178 = EDGE_CURVE ( 'NONE', #64, #85, #80, .T. ) ;
#179 = CC_DESIGN_APPROVAL ( #120, ( #233 ) ) ;
#180 = AXIS2_PLACEMENT_3D ( 'NONE', #17, #74, #231 ) ;
#181 = PERSON_AND_ORGANIZATION_ROLE ( 'creator' ) ;
#182 = ORIENTED_EDGE ( 'NONE', *, *, #158, .F. ) ;
#183 = PRODUCT_RELATED_PRODUCT_CATEGORY ( 'detail', '', ( #176 ) ) ;
#184 = PERSON_AND_ORGANIZATION ( #234, #102 ) ;
#185 = CARTESIAN_POINT ( 'NONE',  ( -3.000000000000000444, 0.000000000000000000, 3.000000000000000000 ) ) ;
#186 = DIRECTION ( 'NONE',  ( 1.000000000000000000, 0.000000000000000000, 0.000000000000000000 ) ) ;
#187 = ORIENTED_EDGE ( 'NONE', *, *, #255, .F. ) ;
#188 = COORDINATED_UNIVERSAL_TIME_OFFSET ( 1, 0, .AHEAD. ) ;
#189 = DIRECTION ( 'NONE',  ( 1.000000000000000000, 0.000000000000000000, 0.000000000000000000 ) ) ;
#190 = DATE_AND_TIME ( #96, #83 ) ;
#191 = CARTESIAN_POINT ( 'NONE',  ( 0.000000000000000000, 0.000000000000000000, 3.000000000000000000 ) ) ;
#192 = APPROVAL_DATE_TIME ( #16, #120 ) ;
#193 = DIRECTION ( 'NONE',  ( 0.000000000000000000, 0.000000000000000000, 1.000000000000000000 ) ) ;
#194 = ADVANCED_FACE ( 'NONE', ( #196, #78 ), #254, .T. ) ;
#195 = COORDINATED_UNIVERSAL_TIME_OFFSET ( 1, 0, .AHEAD. ) ;
#196 = FACE_BOUND ( 'NONE', #222, .T. ) ;
#197 = AXIS2_PLACEMENT_3D ( 'NONE', #77, #229, #94 ) ;
#198 = CIRCLE ( 'NONE', #213, 3.000000000000000444 ) ;
#199 = APPROVAL_ROLE ( '' ) ;
#200 = ORIENTED_EDGE ( 'NONE', *, *, #108, .T. ) ;
#201 = DIRECTION ( 'NONE',  ( -0.000000000000000000, -0.000000000000000000, -1.000000000000000000 ) ) ;
#202 = CYLINDRICAL_SURFACE ( 'NONE', #214, 3.000000000000000444 ) ;
#203 = APPROVAL_STATUS ( 'not_yet_approved' ) ;
#204 = CARTESIAN_POINT ( 'NONE',  ( 0.000000000000000000, 0.000000000000000000, 3.000000000000000000 ) ) ;
#205 = CARTESIAN_POINT ( 'NONE',  ( 0.000000000000000000, 0.000000000000000000, 103.0000000000000142 ) ) ;
#206 = ORIENTED_EDGE ( 'NONE', *, *, #178, .F. ) ;
#207 = EDGE_CURVE ( 'NONE', #85, #64, #109, .T. ) ;
#208 = CARTESIAN_POINT ( 'NONE',  ( 1.500000000000000222, 1.836970198721030181E-16, 103.0000000000000142 ) ) ;
#209 = CARTESIAN_POINT ( 'NONE',  ( 3.000000000000000444, 3.673940397442060361E-16, 0.000000000000000000 ) ) ;
#210 = DIRECTION ( 'NONE',  ( 0.000000000000000000, 0.000000000000000000, 1.000000000000000000 ) ) ;
#211 = CC_DESIGN_APPROVAL ( #20, ( #63 ) ) ;
#212 = CARTESIAN_POINT ( 'NONE',  ( -1.500000000000000222, 0.000000000000000000, 103.0000000000000142 ) ) ;
#213 = AXIS2_PLACEMENT_3D ( 'NONE', #59, #111, #189 ) ;
#214 = AXIS2_PLACEMENT_3D ( 'NONE', #204, #26, #105 ) ;
#215 = EDGE_CURVE ( 'NONE', #62, #124, #40, .T. ) ;
#216 =( LENGTH_UNIT ( ) NAMED_UNIT ( * ) SI_UNIT ( .MILLI., .METRE. ) );
#217 = ORIENTED_EDGE ( 'NONE', *, *, #207, .F. ) ;
#218 = PERSON_AND_ORGANIZATION ( #234, #102 ) ;
#219 = ORIENTED_EDGE ( 'NONE', *, *, #82, .F. ) ;
#220 = CIRCLE ( 'NONE', #42, 3.000000000000000444 ) ;
#221 = DIRECTION ( 'NONE',  ( 0.000000000000000000, 0.000000000000000000, 1.000000000000000000 ) ) ;
#222 = EDGE_LOOP ( 'NONE', ( #206, #217 ) ) ;
#223 = ADVANCED_FACE ( 'NONE', ( #119 ), #4, .T. ) ;
#224 = COORDINATED_UNIVERSAL_TIME_OFFSET ( 1, 0, .AHEAD. ) ;
#225 = ORIENTED_EDGE ( 'NONE', *, *, #91, .T. ) ;
#226 = CC_DESIGN_SECURITY_CLASSIFICATION ( #63, ( #233 ) ) ;
#227 = DIRECTION ( 'NONE',  ( 0.000000000000000000, 0.000000000000000000, 1.000000000000000000 ) ) ;
#228 = FACE_OUTER_BOUND ( 'NONE', #50, .T. ) ;
#229 = DIRECTION ( 'NONE',  ( 0.000000000000000000, 0.000000000000000000, 1.000000000000000000 ) ) ;
#230 = PERSON_AND_ORGANIZATION ( #234, #102 ) ;
#231 = DIRECTION ( 'NONE',  ( 1.000000000000000000, 0.000000000000000000, -0.000000000000000000 ) ) ;
#232 = ADVANCED_FACE ( 'NONE', ( #236 ), #84, .F. ) ;
#233 = PRODUCT_DEFINITION_FORMATION_WITH_SPECIFIED_SOURCE ( 'LIBOVOLNÝ', '', #176, .NOT_KNOWN. ) ;
#234 = PERSON ( 'NEURÈENÝ', 'NEURÈENÝ', 'NEURÈENÝ', ('NEURÈENÝ'), ('NEURÈENÝ'), ('NEURÈENÝ') ) ;
#235 = ORIENTED_EDGE ( 'NONE', *, *, #255, .T. ) ;
#236 = FACE_OUTER_BOUND ( 'NONE', #143, .T. ) ;
#237 = CARTESIAN_POINT ( 'NONE',  ( -3.000000000000000444, 0.000000000000000000, 3.000000000000000000 ) ) ;
#238 =( GEOMETRIC_REPRESENTATION_CONTEXT ( 3 ) GLOBAL_UNCERTAINTY_ASSIGNED_CONTEXT ( ( #2 ) ) GLOBAL_UNIT_ASSIGNED_CONTEXT ( ( #216, #131, #29 ) ) REPRESENTATION_CONTEXT ( 'NONE', 'WORKASPACE' ) );
#239 = PERSON_AND_ORGANIZATION ( #234, #102 ) ;
#240 = ORIENTED_EDGE ( 'NONE', *, *, #82, .T. ) ;
#241 = EDGE_CURVE ( 'NONE', #10, #129, #149, .T. ) ;
#242 = VECTOR ( 'NONE', #155, 1000.000000000000000 ) ;
#243 = CARTESIAN_POINT ( 'NONE',  ( 0.000000000000000000, 0.000000000000000000, 0.000000000000000000 ) ) ;
#244 = PERSON_AND_ORGANIZATION_ROLE ( 'creator' ) ;
#245 = ORIENTED_EDGE ( 'NONE', *, *, #41, .F. ) ;
#246 = DIRECTION ( 'NONE',  ( -0.000000000000000000, -0.000000000000000000, -1.000000000000000000 ) ) ;
#247 = PERSON_AND_ORGANIZATION ( #234, #102 ) ;
#248 = DIRECTION ( 'NONE',  ( -1.000000000000000000, 0.000000000000000000, 0.000000000000000000 ) ) ;
#249 = SECURITY_CLASSIFICATION_LEVEL ( 'unclassified' ) ;
#250 = CARTESIAN_POINT ( 'NONE',  ( 3.000000000000000444, 3.673940397442060361E-16, 3.000000000000000000 ) ) ;
#251 = DATE_AND_TIME ( #118, #156 ) ;
#252 = FACE_OUTER_BOUND ( 'NONE', #132, .T. ) ;
#253 = CALENDAR_DATE ( 2022, 7, 7 ) ;
#254 = PLANE ( 'NONE',  #137 ) ;
#255 = EDGE_CURVE ( 'NONE', #66, #32, #43, .T. ) ;
ENDSEC;
END-ISO-10303-21;
