ISO-10303-21;
HEADER;
FILE_DESCRIPTION (( 'STEP AP203' ),
    '1' );
FILE_NAME ('3486.STEP',
    '2022-07-07T17:34:42',
    ( '' ),
    ( '' ),
    'SwSTEP 2.0',
    'SolidWorks 2019',
    '' );
FILE_SCHEMA (( 'CONFIG_CONTROL_DESIGN' ));
ENDSEC;

DATA;
#1 = CIRCLE ( 'NONE', #55, 6.000000000000000888 ) ;
#2 = DIRECTION ( 'NONE',  ( 0.000000000000000000, 0.000000000000000000, 1.000000000000000000 ) ) ;
#3 = VERTEX_POINT ( 'NONE', #88 ) ;
#4 = ORIENTED_EDGE ( 'NONE', *, *, #41, .F. ) ;
#5 = CARTESIAN_POINT ( 'NONE',  ( 0.000000000000000000, 0.000000000000000000, 5.000000000000000000 ) ) ;
#6 = PERSON_AND_ORGANIZATION ( #255, #57 ) ;
#7 = DIRECTION ( 'NONE',  ( -1.000000000000000000, 0.000000000000000000, 0.000000000000000000 ) ) ;
#8 = ORIENTED_EDGE ( 'NONE', *, *, #157, .T. ) ;
#9 = CC_DESIGN_PERSON_AND_ORGANIZATION_ASSIGNMENT ( #210, #117, ( #139 ) ) ;
#10 = PERSON_AND_ORGANIZATION_ROLE ( 'classification_officer' ) ;
#11 = APPROVAL_PERSON_ORGANIZATION ( #149, #43, #100 ) ;
#12 = DIRECTION ( 'NONE',  ( 0.000000000000000000, 0.000000000000000000, 1.000000000000000000 ) ) ;
#13 = ADVANCED_FACE ( 'NONE', ( #51 ), #94, .T. ) ;
#14 = PERSON_AND_ORGANIZATION ( #255, #57 ) ;
#15 = CARTESIAN_POINT ( 'NONE',  ( 0.000000000000000000, 0.000000000000000000, 0.000000000000000000 ) ) ;
#16 = DIRECTION ( 'NONE',  ( 0.000000000000000000, 0.000000000000000000, 1.000000000000000000 ) ) ;
#17 = DIRECTION ( 'NONE',  ( 1.000000000000000000, 0.000000000000000000, 0.000000000000000000 ) ) ;
#18 = DATE_AND_TIME ( #245, #126 ) ;
#19 = CARTESIAN_POINT ( 'NONE',  ( 0.000000000000000000, 0.000000000000000000, 5.000000000000000000 ) ) ;
#20 = UNCERTAINTY_MEASURE_WITH_UNIT (LENGTH_MEASURE( 1.000000000000000082E-05 ), #96, 'distance_accuracy_value', 'NONE');
#21 = CIRCLE ( 'NONE', #198, 3.750000000000000000 ) ;
#22 = DIRECTION ( 'NONE',  ( 0.000000000000000000, 0.000000000000000000, 1.000000000000000000 ) ) ;
#23 = DIRECTION ( 'NONE',  ( 1.000000000000000000, 0.000000000000000000, 0.000000000000000000 ) ) ;
#24 = AXIS2_PLACEMENT_3D ( 'NONE', #173, #98, #7 ) ;
#25 = EDGE_CURVE ( 'NONE', #136, #147, #128, .T. ) ;
#26 = CARTESIAN_POINT ( 'NONE',  ( 6.000000000000000888, 7.347880794884120722E-16, 0.000000000000000000 ) ) ;
#27 = DIRECTION ( 'NONE',  ( -1.000000000000000000, 0.000000000000000000, 0.000000000000000000 ) ) ;
#28 = ORIENTED_EDGE ( 'NONE', *, *, #46, .F. ) ;
#29 = EDGE_LOOP ( 'NONE', ( #225, #8, #64, #221 ) ) ;
#30 = DIRECTION ( 'NONE',  ( 1.000000000000000000, 0.000000000000000000, 0.000000000000000000 ) ) ;
#31 = DIRECTION ( 'NONE',  ( -0.000000000000000000, -0.000000000000000000, -1.000000000000000000 ) ) ;
#32 = DIRECTION ( 'NONE',  ( -0.000000000000000000, -0.000000000000000000, -1.000000000000000000 ) ) ;
#33 = APPROVAL_ROLE ( '' ) ;
#34 = DIRECTION ( 'NONE',  ( 1.000000000000000000, 0.000000000000000000, 0.000000000000000000 ) ) ;
#35 = PRODUCT_DEFINITION ( 'NEZNÁMÝ', '', #82, #176 ) ;
#36 = PERSON_AND_ORGANIZATION_ROLE ( 'design_supplier' ) ;
#37 = CARTESIAN_POINT ( 'NONE',  ( -6.000000000000000888, 0.000000000000000000, 5.000000000000000000 ) ) ;
#38 = COORDINATED_UNIVERSAL_TIME_OFFSET ( 1, 0, .AHEAD. ) ;
#39 = DIRECTION ( 'NONE',  ( 0.000000000000000000, 0.000000000000000000, 1.000000000000000000 ) ) ;
#40 = APPLICATION_CONTEXT ( 'configuration controlled 3d designs of mechanical parts and assemblies' ) ;
#41 = EDGE_CURVE ( 'NONE', #53, #71, #237, .T. ) ;
#42 = VECTOR ( 'NONE', #216, 1000.000000000000000 ) ;
#43 = APPROVAL ( #226, 'NEURÈENÝ' ) ;
#44 = FACE_OUTER_BOUND ( 'NONE', #89, .T. ) ;
#45 = ORIENTED_EDGE ( 'NONE', *, *, #138, .T. ) ;
#46 = EDGE_CURVE ( 'NONE', #130, #72, #244, .T. ) ;
#47 = ADVANCED_FACE ( 'NONE', ( #68, #44 ), #239, .T. ) ;
#48 = CC_DESIGN_APPROVAL ( #177, ( #82 ) ) ;
#49 = DIRECTION ( 'NONE',  ( -0.000000000000000000, -0.000000000000000000, -1.000000000000000000 ) ) ;
#50 = FACE_OUTER_BOUND ( 'NONE', #29, .T. ) ;
#51 = FACE_OUTER_BOUND ( 'NONE', #90, .T. ) ;
#52 = AXIS2_PLACEMENT_3D ( 'NONE', #202, #49, #209 ) ;
#53 = VERTEX_POINT ( 'NONE', #200 ) ;
#54 = DATE_AND_TIME ( #151, #69 ) ;
#55 = AXIS2_PLACEMENT_3D ( 'NONE', #194, #39, #34 ) ;
#56 = CARTESIAN_POINT ( 'NONE',  ( 0.000000000000000000, 0.000000000000000000, 255.0000000000000000 ) ) ;
#57 = ORGANIZATION ( 'NEURÈENÝ', 'NEURÈENÝ', '' ) ;
#58 = CARTESIAN_POINT ( 'NONE',  ( -6.000000000000000888, 0.000000000000000000, 5.000000000000000000 ) ) ;
#59 = MECHANICAL_CONTEXT ( 'NONE', #217, 'mechanical' ) ;
#60 = DIRECTION ( 'NONE',  ( 0.000000000000000000, 0.000000000000000000, 1.000000000000000000 ) ) ;
#61 = APPROVAL_PERSON_ORGANIZATION ( #95, #234, #33 ) ;
#62 = ADVANCED_BREP_SHAPE_REPRESENTATION ( '3486', ( #236, #181 ), #189 ) ;
#63 = EDGE_CURVE ( 'NONE', #72, #112, #80, .T. ) ;
#64 = ORIENTED_EDGE ( 'NONE', *, *, #213, .T. ) ;
#65 = PRODUCT_DEFINITION_SHAPE ( 'NONE', 'NONE',  #35 ) ;
#66 = AXIS2_PLACEMENT_3D ( 'NONE', #168, #150, #206 ) ;
#67 = CARTESIAN_POINT ( 'NONE',  ( 3.750000000000000000, 4.592425496802573972E-16, 255.0000000000000000 ) ) ;
#68 = FACE_BOUND ( 'NONE', #228, .T. ) ;
#69 = LOCAL_TIME ( 19, 34, 42.00000000000000000, #186 ) ;
#70 = CALENDAR_DATE ( 2022, 7, 7 ) ;
#71 = VERTEX_POINT ( 'NONE', #26 ) ;
#72 = VERTEX_POINT ( 'NONE', #205 ) ;
#73 = APPROVAL_STATUS ( 'not_yet_approved' ) ;
#74 = PLANE ( 'NONE',  #84 ) ;
#75 = CALENDAR_DATE ( 2022, 7, 7 ) ;
#76 = FACE_OUTER_BOUND ( 'NONE', #131, .T. ) ;
#77 = DIRECTION ( 'NONE',  ( -1.000000000000000000, 0.000000000000000000, 0.000000000000000000 ) ) ;
#78 = ORIENTED_EDGE ( 'NONE', *, *, #157, .F. ) ;
#79 = CC_DESIGN_PERSON_AND_ORGANIZATION_ASSIGNMENT ( #207, #195, ( #35 ) ) ;
#80 = CIRCLE ( 'NONE', #235, 3.750000000000000000 ) ;
#81 = EDGE_CURVE ( 'NONE', #3, #112, #109, .T. ) ;
#82 = PRODUCT_DEFINITION_FORMATION_WITH_SPECIFIED_SOURCE ( 'LIBOVOLNÝ', '', #139, .NOT_KNOWN. ) ;
#83 = PRODUCT_RELATED_PRODUCT_CATEGORY ( 'detail', '', ( #139 ) ) ;
#84 = AXIS2_PLACEMENT_3D ( 'NONE', #184, #93, #166 ) ;
#85 = CC_DESIGN_PERSON_AND_ORGANIZATION_ASSIGNMENT ( #6, #36, ( #82 ) ) ;
#86 = CIRCLE ( 'NONE', #125, 3.750000000000000000 ) ;
#87 = EDGE_CURVE ( 'NONE', #3, #130, #163, .T. ) ;
#88 = CARTESIAN_POINT ( 'NONE',  ( -3.750000000000000000, 0.000000000000000000, 255.0000000000000000 ) ) ;
#89 = EDGE_LOOP ( 'NONE', ( #161, #192 ) ) ;
#90 = EDGE_LOOP ( 'NONE', ( #78, #182, #45, #113 ) ) ;
#91 = DIRECTION ( 'NONE',  ( 0.000000000000000000, 0.000000000000000000, 1.000000000000000000 ) ) ;
#92 = CALENDAR_DATE ( 2022, 7, 7 ) ;
#93 = DIRECTION ( 'NONE',  ( 0.000000000000000000, 0.000000000000000000, 1.000000000000000000 ) ) ;
#94 = CYLINDRICAL_SURFACE ( 'NONE', #52, 6.000000000000000888 ) ;
#95 = PERSON_AND_ORGANIZATION ( #255, #57 ) ;
#96 =( LENGTH_UNIT ( ) NAMED_UNIT ( * ) SI_UNIT ( .MILLI., .METRE. ) );
#97 = APPROVAL_ROLE ( '' ) ;
#98 = DIRECTION ( 'NONE',  ( -0.000000000000000000, -0.000000000000000000, -1.000000000000000000 ) ) ;
#99 = ORIENTED_EDGE ( 'NONE', *, *, #101, .T. ) ;
#100 = APPROVAL_ROLE ( '' ) ;
#101 = EDGE_CURVE ( 'NONE', #112, #72, #21, .T. ) ;
#102 = FACE_OUTER_BOUND ( 'NONE', #252, .T. ) ;
#103 = CARTESIAN_POINT ( 'NONE',  ( 0.000000000000000000, 0.000000000000000000, 0.000000000000000000 ) ) ;
#104 = VECTOR ( 'NONE', #32, 1000.000000000000000 ) ;
#105 = LOCAL_TIME ( 19, 34, 42.00000000000000000, #170 ) ;
#106 = DIRECTION ( 'NONE',  ( 1.000000000000000000, 0.000000000000000000, 0.000000000000000000 ) ) ;
#107 = AXIS2_PLACEMENT_3D ( 'NONE', #156, #60, #142 ) ;
#108 = ORIENTED_EDGE ( 'NONE', *, *, #213, .F. ) ;
#109 = LINE ( 'NONE', #180, #215 ) ;
#110 = FACE_OUTER_BOUND ( 'NONE', #185, .T. ) ;
#111 = CC_DESIGN_DATE_AND_TIME_ASSIGNMENT ( #165, #248, ( #197 ) ) ;
#112 = VERTEX_POINT ( 'NONE', #233 ) ;
#113 = ORIENTED_EDGE ( 'NONE', *, *, #41, .T. ) ;
#114 = SECURITY_CLASSIFICATION_LEVEL ( 'unclassified' ) ;
#115 = DIRECTION ( 'NONE',  ( -0.000000000000000000, -0.000000000000000000, -1.000000000000000000 ) ) ;
#116 = ORIENTED_EDGE ( 'NONE', *, *, #46, .T. ) ;
#117 = PERSON_AND_ORGANIZATION_ROLE ( 'design_owner' ) ;
#118 = CARTESIAN_POINT ( 'NONE',  ( 6.000000000000000888, 7.347880794884120722E-16, 5.000000000000000000 ) ) ;
#119 = EDGE_CURVE ( 'NONE', #130, #3, #86, .T. ) ;
#120 = PERSON_AND_ORGANIZATION ( #255, #57 ) ;
#121 = LINE ( 'NONE', #188, #249 ) ;
#122 = CYLINDRICAL_SURFACE ( 'NONE', #143, 6.000000000000000888 ) ;
#123 = EDGE_CURVE ( 'NONE', #147, #136, #1, .T. ) ;
#124 = CC_DESIGN_PERSON_AND_ORGANIZATION_ASSIGNMENT ( #120, #10, ( #197 ) ) ;
#125 = AXIS2_PLACEMENT_3D ( 'NONE', #56, #135, #196 ) ;
#126 = LOCAL_TIME ( 19, 34, 42.00000000000000000, #38 ) ;
#127 = ADVANCED_FACE ( 'NONE', ( #76 ), #141, .T. ) ;
#128 = CIRCLE ( 'NONE', #145, 6.000000000000000888 ) ;
#129 = DIRECTION ( 'NONE',  ( 1.000000000000000000, 0.000000000000000000, -0.000000000000000000 ) ) ;
#130 = VERTEX_POINT ( 'NONE', #208 ) ;
#131 = EDGE_LOOP ( 'NONE', ( #146, #222 ) ) ;
#132 = CARTESIAN_POINT ( 'NONE',  ( 0.000000000000000000, 0.000000000000000000, 5.000000000000000000 ) ) ;
#133 = CARTESIAN_POINT ( 'NONE',  ( 0.000000000000000000, 0.000000000000000000, 5.000000000000000000 ) ) ;
#134 = CC_DESIGN_PERSON_AND_ORGANIZATION_ASSIGNMENT ( #175, #241, ( #82 ) ) ;
#135 = DIRECTION ( 'NONE',  ( 0.000000000000000000, 0.000000000000000000, 1.000000000000000000 ) ) ;
#136 = VERTEX_POINT ( 'NONE', #58 ) ;
#137 = APPROVAL_DATE_TIME ( #54, #43 ) ;
#138 = EDGE_CURVE ( 'NONE', #136, #53, #227, .T. ) ;
#139 = PRODUCT ( '3486', '3486', '', ( #59 ) ) ;
#140 = APPROVAL_DATE_TIME ( #232, #177 ) ;
#141 = PLANE ( 'NONE',  #107 ) ;
#142 = DIRECTION ( 'NONE',  ( 1.000000000000000000, 0.000000000000000000, -0.000000000000000000 ) ) ;
#143 = AXIS2_PLACEMENT_3D ( 'NONE', #19, #115, #27 ) ;
#144 = ORIENTED_EDGE ( 'NONE', *, *, #101, .F. ) ;
#145 = AXIS2_PLACEMENT_3D ( 'NONE', #133, #91, #23 ) ;
#146 = ORIENTED_EDGE ( 'NONE', *, *, #87, .T. ) ;
#147 = VERTEX_POINT ( 'NONE', #118 ) ;
#148 = ORIENTED_EDGE ( 'NONE', *, *, #63, .T. ) ;
#149 = PERSON_AND_ORGANIZATION ( #255, #57 ) ;
#150 = DIRECTION ( 'NONE',  ( 0.000000000000000000, 0.000000000000000000, 1.000000000000000000 ) ) ;
#151 = CALENDAR_DATE ( 2022, 7, 7 ) ;
#152 =( NAMED_UNIT ( * ) PLANE_ANGLE_UNIT ( ) SI_UNIT ( $, .RADIAN. ) );
#153 = APPLICATION_PROTOCOL_DEFINITION ( 'international standard', 'config_control_design', 1994, #217 ) ;
#154 = CYLINDRICAL_SURFACE ( 'NONE', #24, 3.750000000000000000 ) ;
#155 = APPLICATION_PROTOCOL_DEFINITION ( 'international standard', 'config_control_design', 1994, #40 ) ;
#156 = CARTESIAN_POINT ( 'NONE',  ( 0.000000000000000000, 0.000000000000000000, 255.0000000000000000 ) ) ;
#157 = EDGE_CURVE ( 'NONE', #147, #71, #121, .T. ) ;
#158 = CLOSED_SHELL ( 'NONE', ( #253, #201, #13, #47, #254, #251, #127 ) ) ;
#159 = CC_DESIGN_APPROVAL ( #43, ( #197 ) ) ;
#160 = DIRECTION ( 'NONE',  ( 1.000000000000000000, 0.000000000000000000, 0.000000000000000000 ) ) ;
#161 = ORIENTED_EDGE ( 'NONE', *, *, #25, .T. ) ;
#162 = ORIENTED_EDGE ( 'NONE', *, *, #87, .F. ) ;
#163 = CIRCLE ( 'NONE', #219, 3.750000000000000000 ) ;
#164 = CARTESIAN_POINT ( 'NONE',  ( 0.000000000000000000, 0.000000000000000000, 255.0000000000000000 ) ) ;
#165 = DATE_AND_TIME ( #92, #174 ) ;
#166 = DIRECTION ( 'NONE',  ( 1.000000000000000000, 0.000000000000000000, -0.000000000000000000 ) ) ;
#167 = AXIS2_PLACEMENT_3D ( 'NONE', #15, #12, #17 ) ;
#168 = CARTESIAN_POINT ( 'NONE',  ( 0.000000000000000000, 0.000000000000000000, 0.000000000000000000 ) ) ;
#169 = APPROVAL_DATE_TIME ( #191, #234 ) ;
#170 = COORDINATED_UNIVERSAL_TIME_OFFSET ( 1, 0, .AHEAD. ) ;
#171 =( NAMED_UNIT ( * ) SI_UNIT ( $, .STERADIAN. ) SOLID_ANGLE_UNIT ( ) );
#172 = SHAPE_DEFINITION_REPRESENTATION ( #65, #62 ) ;
#173 = CARTESIAN_POINT ( 'NONE',  ( 0.000000000000000000, 0.000000000000000000, 255.0000000000000000 ) ) ;
#174 = LOCAL_TIME ( 19, 34, 42.00000000000000000, #230 ) ;
#175 = PERSON_AND_ORGANIZATION ( #255, #57 ) ;
#176 = DESIGN_CONTEXT ( 'detailed design', #40, 'design' ) ;
#177 = APPROVAL ( #73, 'NEURÈENÝ' ) ;
#178 = LOCAL_TIME ( 19, 34, 42.00000000000000000, #246 ) ;
#179 = ORIENTED_EDGE ( 'NONE', *, *, #63, .F. ) ;
#180 = CARTESIAN_POINT ( 'NONE',  ( -3.750000000000000000, 0.000000000000000000, 255.0000000000000000 ) ) ;
#181 = AXIS2_PLACEMENT_3D ( 'NONE', #103, #16, #30 ) ;
#182 = ORIENTED_EDGE ( 'NONE', *, *, #25, .F. ) ;
#183 = DIRECTION ( 'NONE',  ( -0.000000000000000000, -0.000000000000000000, -1.000000000000000000 ) ) ;
#184 = CARTESIAN_POINT ( 'NONE',  ( 0.000000000000000000, 0.000000000000000000, 0.000000000000000000 ) ) ;
#185 = EDGE_LOOP ( 'NONE', ( #4, #108 ) ) ;
#186 = COORDINATED_UNIVERSAL_TIME_OFFSET ( 1, 0, .AHEAD. ) ;
#187 = CIRCLE ( 'NONE', #167, 6.000000000000000888 ) ;
#188 = CARTESIAN_POINT ( 'NONE',  ( 6.000000000000000888, 7.347880794884120722E-16, 5.000000000000000000 ) ) ;
#189 =( GEOMETRIC_REPRESENTATION_CONTEXT ( 3 ) GLOBAL_UNCERTAINTY_ASSIGNED_CONTEXT ( ( #20 ) ) GLOBAL_UNIT_ASSIGNED_CONTEXT ( ( #96, #152, #171 ) ) REPRESENTATION_CONTEXT ( 'NONE', 'WORKASPACE' ) );
#190 = ORIENTED_EDGE ( 'NONE', *, *, #119, .F. ) ;
#191 = DATE_AND_TIME ( #70, #105 ) ;
#192 = ORIENTED_EDGE ( 'NONE', *, *, #123, .T. ) ;
#193 = DATE_TIME_ROLE ( 'creation_date' ) ;
#194 = CARTESIAN_POINT ( 'NONE',  ( 0.000000000000000000, 0.000000000000000000, 5.000000000000000000 ) ) ;
#195 = PERSON_AND_ORGANIZATION_ROLE ( 'creator' ) ;
#196 = DIRECTION ( 'NONE',  ( 1.000000000000000000, 0.000000000000000000, 0.000000000000000000 ) ) ;
#197 = SECURITY_CLASSIFICATION ( '', '', #114 ) ;
#198 = AXIS2_PLACEMENT_3D ( 'NONE', #238, #240, #212 ) ;
#199 = APPROVAL_PERSON_ORGANIZATION ( #14, #177, #97 ) ;
#200 = CARTESIAN_POINT ( 'NONE',  ( -6.000000000000000888, 0.000000000000000000, 0.000000000000000000 ) ) ;
#201 = ADVANCED_FACE ( 'NONE', ( #50 ), #122, .T. ) ;
#202 = CARTESIAN_POINT ( 'NONE',  ( 0.000000000000000000, 0.000000000000000000, 5.000000000000000000 ) ) ;
#203 = ORIENTED_EDGE ( 'NONE', *, *, #81, .F. ) ;
#204 = ORIENTED_EDGE ( 'NONE', *, *, #81, .T. ) ;
#205 = CARTESIAN_POINT ( 'NONE',  ( 3.750000000000000000, 4.592425496802573972E-16, 5.000000000000000000 ) ) ;
#206 = DIRECTION ( 'NONE',  ( 1.000000000000000000, 0.000000000000000000, 0.000000000000000000 ) ) ;
#207 = PERSON_AND_ORGANIZATION ( #255, #57 ) ;
#208 = CARTESIAN_POINT ( 'NONE',  ( 3.750000000000000000, 4.592425496802573972E-16, 255.0000000000000000 ) ) ;
#209 = DIRECTION ( 'NONE',  ( -1.000000000000000000, 0.000000000000000000, 0.000000000000000000 ) ) ;
#210 = PERSON_AND_ORGANIZATION ( #255, #57 ) ;
#211 = CYLINDRICAL_SURFACE ( 'NONE', #224, 3.750000000000000000 ) ;
#212 = DIRECTION ( 'NONE',  ( 1.000000000000000000, 0.000000000000000000, 0.000000000000000000 ) ) ;
#213 = EDGE_CURVE ( 'NONE', #71, #53, #187, .T. ) ;
#214 = APPROVAL_STATUS ( 'not_yet_approved' ) ;
#215 = VECTOR ( 'NONE', #183, 1000.000000000000000 ) ;
#216 = DIRECTION ( 'NONE',  ( -0.000000000000000000, -0.000000000000000000, -1.000000000000000000 ) ) ;
#217 = APPLICATION_CONTEXT ( 'configuration controlled 3d designs of mechanical parts and assemblies' ) ;
#218 = CC_DESIGN_APPROVAL ( #234, ( #35 ) ) ;
#219 = AXIS2_PLACEMENT_3D ( 'NONE', #164, #2, #160 ) ;
#220 = CC_DESIGN_DATE_AND_TIME_ASSIGNMENT ( #18, #193, ( #35 ) ) ;
#221 = ORIENTED_EDGE ( 'NONE', *, *, #138, .F. ) ;
#222 = ORIENTED_EDGE ( 'NONE', *, *, #119, .T. ) ;
#223 = DIRECTION ( 'NONE',  ( 0.000000000000000000, 0.000000000000000000, 1.000000000000000000 ) ) ;
#224 = AXIS2_PLACEMENT_3D ( 'NONE', #243, #231, #77 ) ;
#225 = ORIENTED_EDGE ( 'NONE', *, *, #123, .F. ) ;
#226 = APPROVAL_STATUS ( 'not_yet_approved' ) ;
#227 = LINE ( 'NONE', #37, #42 ) ;
#228 = EDGE_LOOP ( 'NONE', ( #144, #179 ) ) ;
#229 = AXIS2_PLACEMENT_3D ( 'NONE', #5, #223, #129 ) ;
#230 = COORDINATED_UNIVERSAL_TIME_OFFSET ( 1, 0, .AHEAD. ) ;
#231 = DIRECTION ( 'NONE',  ( -0.000000000000000000, -0.000000000000000000, -1.000000000000000000 ) ) ;
#232 = DATE_AND_TIME ( #75, #178 ) ;
#233 = CARTESIAN_POINT ( 'NONE',  ( -3.750000000000000000, 0.000000000000000000, 5.000000000000000000 ) ) ;
#234 = APPROVAL ( #214, 'NEURÈENÝ' ) ;
#235 = AXIS2_PLACEMENT_3D ( 'NONE', #132, #22, #106 ) ;
#236 = MANIFOLD_SOLID_BREP ( 'Pøidat vysunutím3', #158 ) ;
#237 = CIRCLE ( 'NONE', #66, 6.000000000000000888 ) ;
#238 = CARTESIAN_POINT ( 'NONE',  ( 0.000000000000000000, 0.000000000000000000, 5.000000000000000000 ) ) ;
#239 = PLANE ( 'NONE',  #229 ) ;
#240 = DIRECTION ( 'NONE',  ( 0.000000000000000000, 0.000000000000000000, 1.000000000000000000 ) ) ;
#241 = PERSON_AND_ORGANIZATION_ROLE ( 'creator' ) ;
#242 = CC_DESIGN_SECURITY_CLASSIFICATION ( #197, ( #82 ) ) ;
#243 = CARTESIAN_POINT ( 'NONE',  ( 0.000000000000000000, 0.000000000000000000, 255.0000000000000000 ) ) ;
#244 = LINE ( 'NONE', #67, #104 ) ;
#245 = CALENDAR_DATE ( 2022, 7, 7 ) ;
#246 = COORDINATED_UNIVERSAL_TIME_OFFSET ( 1, 0, .AHEAD. ) ;
#247 = EDGE_LOOP ( 'NONE', ( #190, #116, #148, #203 ) ) ;
#248 = DATE_TIME_ROLE ( 'classification_date' ) ;
#249 = VECTOR ( 'NONE', #31, 1000.000000000000000 ) ;
#250 = FACE_OUTER_BOUND ( 'NONE', #247, .T. ) ;
#251 = ADVANCED_FACE ( 'NONE', ( #102 ), #154, .T. ) ;
#252 = EDGE_LOOP ( 'NONE', ( #28, #162, #204, #99 ) ) ;
#253 = ADVANCED_FACE ( 'NONE', ( #250 ), #211, .T. ) ;
#254 = ADVANCED_FACE ( 'NONE', ( #110 ), #74, .F. ) ;
#255 = PERSON ( 'NEURÈENÝ', 'NEURÈENÝ', 'NEURÈENÝ', ('NEURÈENÝ'), ('NEURÈENÝ'), ('NEURÈENÝ') ) ;
ENDSEC;
END-ISO-10303-21;
