ISO-10303-21;
HEADER;
FILE_DESCRIPTION (( 'STEP AP203' ),
    '1' );
FILE_NAME ('0798.STEP',
    '2022-07-07T17:23:19',
    ( '' ),
    ( '' ),
    'SwSTEP 2.0',
    'SolidWorks 2019',
    '' );
FILE_SCHEMA (( 'CONFIG_CONTROL_DESIGN' ));
ENDSEC;

DATA;
#1 = DIRECTION ( 'NONE',  ( 1.000000000000000000, 0.000000000000000000, 0.000000000000000000 ) ) ;
#2 = AXIS2_PLACEMENT_3D ( 'NONE', #69, #67, #29 ) ;
#3 = CALENDAR_DATE ( 2022, 7, 7 ) ;
#4 = DESIGN_CONTEXT ( 'detailed design', #213, 'design' ) ;
#5 = ORIENTED_EDGE ( 'NONE', *, *, #85, .F. ) ;
#6 = ORIENTED_EDGE ( 'NONE', *, *, #226, .F. ) ;
#7 = ORGANIZATION ( 'NEURÈENÝ', 'NEURÈENÝ', '' ) ;
#8 = ORIENTED_EDGE ( 'NONE', *, *, #21, .T. ) ;
#9 = CC_DESIGN_PERSON_AND_ORGANIZATION_ASSIGNMENT ( #141, #38, ( #13 ) ) ;
#10 = FACE_OUTER_BOUND ( 'NONE', #186, .T. ) ;
#11 = ORIENTED_EDGE ( 'NONE', *, *, #21, .F. ) ;
#12 = CIRCLE ( 'NONE', #140, 8.000000000000000000 ) ;
#13 = SECURITY_CLASSIFICATION ( '', '', #221 ) ;
#14 = ADVANCED_FACE ( 'NONE', ( #10 ), #244, .T. ) ;
#15 = DIRECTION ( 'NONE',  ( 0.000000000000000000, 0.000000000000000000, 1.000000000000000000 ) ) ;
#16 = CARTESIAN_POINT ( 'NONE',  ( 0.000000000000000000, 0.000000000000000000, 5.000000000000000000 ) ) ;
#17 = CALENDAR_DATE ( 2022, 7, 7 ) ;
#18 = PERSON_AND_ORGANIZATION_ROLE ( 'creator' ) ;
#19 = DIRECTION ( 'NONE',  ( 0.000000000000000000, 0.000000000000000000, 1.000000000000000000 ) ) ;
#20 = DIRECTION ( 'NONE',  ( -0.000000000000000000, -0.000000000000000000, -1.000000000000000000 ) ) ;
#21 = EDGE_CURVE ( 'NONE', #102, #246, #237, .T. ) ;
#22 = DIRECTION ( 'NONE',  ( 1.000000000000000000, 0.000000000000000000, 0.000000000000000000 ) ) ;
#23 = DIRECTION ( 'NONE',  ( 0.000000000000000000, 0.000000000000000000, 1.000000000000000000 ) ) ;
#24 = AXIS2_PLACEMENT_3D ( 'NONE', #187, #87, #91 ) ;
#25 = PERSON_AND_ORGANIZATION_ROLE ( 'design_owner' ) ;
#26 = PRODUCT_RELATED_PRODUCT_CATEGORY ( 'detail', '', ( #209 ) ) ;
#27 = APPROVAL_PERSON_ORGANIZATION ( #50, #145, #137 ) ;
#28 = ORIENTED_EDGE ( 'NONE', *, *, #120, .T. ) ;
#29 = DIRECTION ( 'NONE',  ( -1.000000000000000000, 0.000000000000000000, 0.000000000000000000 ) ) ;
#30 = AXIS2_PLACEMENT_3D ( 'NONE', #93, #116, #36 ) ;
#31 = EDGE_LOOP ( 'NONE', ( #152, #211 ) ) ;
#32 = ORIENTED_EDGE ( 'NONE', *, *, #62, .F. ) ;
#33 = AXIS2_PLACEMENT_3D ( 'NONE', #160, #23, #251 ) ;
#34 = APPROVAL_PERSON_ORGANIZATION ( #218, #149, #233 ) ;
#35 = ADVANCED_FACE ( 'NONE', ( #83 ), #169, .T. ) ;
#36 = DIRECTION ( 'NONE',  ( 1.000000000000000000, 0.000000000000000000, 0.000000000000000000 ) ) ;
#37 = AXIS2_PLACEMENT_3D ( 'NONE', #59, #19, #201 ) ;
#38 = PERSON_AND_ORGANIZATION_ROLE ( 'classification_officer' ) ;
#39 = DIRECTION ( 'NONE',  ( 1.000000000000000000, 0.000000000000000000, -0.000000000000000000 ) ) ;
#40 = COORDINATED_UNIVERSAL_TIME_OFFSET ( 1, 0, .AHEAD. ) ;
#41 = COORDINATED_UNIVERSAL_TIME_OFFSET ( 1, 0, .AHEAD. ) ;
#42 = DIRECTION ( 'NONE',  ( 1.000000000000000000, 0.000000000000000000, -0.000000000000000000 ) ) ;
#43 = CARTESIAN_POINT ( 'NONE',  ( -5.500000000000000000, 0.000000000000000000, 5.000000000000000000 ) ) ;
#44 = COORDINATED_UNIVERSAL_TIME_OFFSET ( 1, 0, .AHEAD. ) ;
#45 = CLOSED_SHELL ( 'NONE', ( #14, #191, #35, #219, #154, #250, #168 ) ) ;
#46 = CC_DESIGN_DATE_AND_TIME_ASSIGNMENT ( #159, #161, ( #90 ) ) ;
#47 = APPROVAL_DATE_TIME ( #111, #104 ) ;
#48 = PLANE ( 'NONE',  #170 ) ;
#49 = CC_DESIGN_SECURITY_CLASSIFICATION ( #13, ( #247 ) ) ;
#50 = PERSON_AND_ORGANIZATION ( #65, #7 ) ;
#51 = EDGE_LOOP ( 'NONE', ( #229, #212 ) ) ;
#52 = EDGE_CURVE ( 'NONE', #148, #53, #12, .T. ) ;
#53 = VERTEX_POINT ( 'NONE', #78 ) ;
#54 = DIRECTION ( 'NONE',  ( -0.000000000000000000, -0.000000000000000000, -1.000000000000000000 ) ) ;
#55 = ORIENTED_EDGE ( 'NONE', *, *, #138, .F. ) ;
#56 = AXIS2_PLACEMENT_3D ( 'NONE', #72, #176, #63 ) ;
#57 = CARTESIAN_POINT ( 'NONE',  ( 0.000000000000000000, 0.000000000000000000, 130.0000000000000000 ) ) ;
#58 = VECTOR ( 'NONE', #174, 1000.000000000000000 ) ;
#59 = CARTESIAN_POINT ( 'NONE',  ( 0.000000000000000000, 0.000000000000000000, 5.000000000000000000 ) ) ;
#60 = APPROVAL_STATUS ( 'not_yet_approved' ) ;
#61 = FACE_BOUND ( 'NONE', #31, .T. ) ;
#62 = EDGE_CURVE ( 'NONE', #188, #70, #96, .T. ) ;
#63 = DIRECTION ( 'NONE',  ( 1.000000000000000000, 0.000000000000000000, 0.000000000000000000 ) ) ;
#64 = CC_DESIGN_DATE_AND_TIME_ASSIGNMENT ( #255, #223, ( #13 ) ) ;
#65 = PERSON ( 'NEURÈENÝ', 'NEURÈENÝ', 'NEURÈENÝ', ('NEURÈENÝ'), ('NEURÈENÝ'), ('NEURÈENÝ') ) ;
#66 = CIRCLE ( 'NONE', #33, 8.000000000000000000 ) ;
#67 = DIRECTION ( 'NONE',  ( -0.000000000000000000, -0.000000000000000000, -1.000000000000000000 ) ) ;
#68 = ORIENTED_EDGE ( 'NONE', *, *, #109, .F. ) ;
#69 = CARTESIAN_POINT ( 'NONE',  ( 0.000000000000000000, 0.000000000000000000, 130.0000000000000000 ) ) ;
#70 = VERTEX_POINT ( 'NONE', #43 ) ;
#71 = CC_DESIGN_PERSON_AND_ORGANIZATION_ASSIGNMENT ( #205, #18, ( #247 ) ) ;
#72 = CARTESIAN_POINT ( 'NONE',  ( 0.000000000000000000, 0.000000000000000000, 130.0000000000000000 ) ) ;
#73 = DIRECTION ( 'NONE',  ( -0.000000000000000000, -0.000000000000000000, -1.000000000000000000 ) ) ;
#74 = COORDINATED_UNIVERSAL_TIME_OFFSET ( 1, 0, .AHEAD. ) ;
#75 = AXIS2_PLACEMENT_3D ( 'NONE', #16, #248, #92 ) ;
#76 = CARTESIAN_POINT ( 'NONE',  ( 0.000000000000000000, 0.000000000000000000, 130.0000000000000000 ) ) ;
#77 = APPROVAL_DATE_TIME ( #95, #149 ) ;
#78 = CARTESIAN_POINT ( 'NONE',  ( 8.000000000000000000, 9.797174393178825657E-16, 0.000000000000000000 ) ) ;
#79 = COORDINATED_UNIVERSAL_TIME_OFFSET ( 1, 0, .AHEAD. ) ;
#80 = APPLICATION_PROTOCOL_DEFINITION ( 'international standard', 'config_control_design', 1994, #163 ) ;
#81 = CC_DESIGN_APPROVAL ( #149, ( #90 ) ) ;
#82 = ORIENTED_EDGE ( 'NONE', *, *, #199, .T. ) ;
#83 = FACE_OUTER_BOUND ( 'NONE', #107, .T. ) ;
#84 = ADVANCED_BREP_SHAPE_REPRESENTATION ( '0798', ( #132, #30 ), #241 ) ;
#85 = EDGE_CURVE ( 'NONE', #102, #53, #162, .T. ) ;
#86 = AXIS2_PLACEMENT_3D ( 'NONE', #97, #193, #124 ) ;
#87 = DIRECTION ( 'NONE',  ( 0.000000000000000000, 0.000000000000000000, 1.000000000000000000 ) ) ;
#88 = APPROVAL_PERSON_ORGANIZATION ( #200, #104, #231 ) ;
#89 = DIRECTION ( 'NONE',  ( 0.000000000000000000, 0.000000000000000000, 1.000000000000000000 ) ) ;
#90 = PRODUCT_DEFINITION ( 'NEZNÁMÝ', '', #247, #4 ) ;
#91 = DIRECTION ( 'NONE',  ( 1.000000000000000000, 0.000000000000000000, 0.000000000000000000 ) ) ;
#92 = DIRECTION ( 'NONE',  ( 1.000000000000000000, 0.000000000000000000, 0.000000000000000000 ) ) ;
#93 = CARTESIAN_POINT ( 'NONE',  ( 0.000000000000000000, 0.000000000000000000, 0.000000000000000000 ) ) ;
#94 = FACE_OUTER_BOUND ( 'NONE', #183, .T. ) ;
#95 = DATE_AND_TIME ( #17, #143 ) ;
#96 = LINE ( 'NONE', #254, #58 ) ;
#97 = CARTESIAN_POINT ( 'NONE',  ( 0.000000000000000000, 0.000000000000000000, 130.0000000000000000 ) ) ;
#98 = DIRECTION ( 'NONE',  ( -1.000000000000000000, 0.000000000000000000, 0.000000000000000000 ) ) ;
#99 = CC_DESIGN_APPROVAL ( #145, ( #247 ) ) ;
#100 = DIRECTION ( 'NONE',  ( 0.000000000000000000, 0.000000000000000000, 1.000000000000000000 ) ) ;
#101 =( LENGTH_UNIT ( ) NAMED_UNIT ( * ) SI_UNIT ( .MILLI., .METRE. ) );
#102 = VERTEX_POINT ( 'NONE', #172 ) ;
#103 = PRODUCT_DEFINITION_SHAPE ( 'NONE', 'NONE',  #90 ) ;
#104 = APPROVAL ( #60, 'NEURÈENÝ' ) ;
#105 = ORIENTED_EDGE ( 'NONE', *, *, #52, .T. ) ;
#106 = VECTOR ( 'NONE', #139, 1000.000000000000000 ) ;
#107 = EDGE_LOOP ( 'NONE', ( #5, #55, #208, #105 ) ) ;
#108 = CARTESIAN_POINT ( 'NONE',  ( 0.000000000000000000, 0.000000000000000000, 0.000000000000000000 ) ) ;
#109 = EDGE_CURVE ( 'NONE', #147, #110, #133, .T. ) ;
#110 = VERTEX_POINT ( 'NONE', #171 ) ;
#111 = DATE_AND_TIME ( #157, #153 ) ;
#112 = CARTESIAN_POINT ( 'NONE',  ( -8.000000000000000000, 0.000000000000000000, 0.000000000000000000 ) ) ;
#113 =( NAMED_UNIT ( * ) PLANE_ANGLE_UNIT ( ) SI_UNIT ( $, .RADIAN. ) );
#114 = CC_DESIGN_PERSON_AND_ORGANIZATION_ASSIGNMENT ( #173, #252, ( #90 ) ) ;
#115 = CARTESIAN_POINT ( 'NONE',  ( 0.000000000000000000, 0.000000000000000000, 5.000000000000000000 ) ) ;
#116 = DIRECTION ( 'NONE',  ( 0.000000000000000000, 0.000000000000000000, 1.000000000000000000 ) ) ;
#117 = PERSON_AND_ORGANIZATION ( #65, #7 ) ;
#118 = FACE_OUTER_BOUND ( 'NONE', #210, .T. ) ;
#119 = AXIS2_PLACEMENT_3D ( 'NONE', #150, #54, #128 ) ;
#120 = EDGE_CURVE ( 'NONE', #110, #70, #151, .T. ) ;
#121 = CARTESIAN_POINT ( 'NONE',  ( 0.000000000000000000, 0.000000000000000000, 0.000000000000000000 ) ) ;
#122 = CC_DESIGN_APPROVAL ( #104, ( #13 ) ) ;
#123 = APPLICATION_PROTOCOL_DEFINITION ( 'international standard', 'config_control_design', 1994, #213 ) ;
#124 = DIRECTION ( 'NONE',  ( -1.000000000000000000, 0.000000000000000000, 0.000000000000000000 ) ) ;
#125 = VECTOR ( 'NONE', #20, 1000.000000000000000 ) ;
#126 = ORIENTED_EDGE ( 'NONE', *, *, #85, .T. ) ;
#127 = ORIENTED_EDGE ( 'NONE', *, *, #226, .T. ) ;
#128 = DIRECTION ( 'NONE',  ( -1.000000000000000000, 0.000000000000000000, 0.000000000000000000 ) ) ;
#129 = ORIENTED_EDGE ( 'NONE', *, *, #109, .T. ) ;
#130 = AXIS2_PLACEMENT_3D ( 'NONE', #203, #217, #1 ) ;
#131 = PLANE ( 'NONE',  #146 ) ;
#132 = MANIFOLD_SOLID_BREP ( 'Pøidat vysunutím3', #45 ) ;
#133 = LINE ( 'NONE', #222, #189 ) ;
#134 = PERSON_AND_ORGANIZATION ( #65, #7 ) ;
#135 = PERSON_AND_ORGANIZATION_ROLE ( 'design_supplier' ) ;
#136 = DIRECTION ( 'NONE',  ( 0.000000000000000000, 0.000000000000000000, 1.000000000000000000 ) ) ;
#137 = APPROVAL_ROLE ( '' ) ;
#138 = EDGE_CURVE ( 'NONE', #246, #102, #180, .T. ) ;
#139 = DIRECTION ( 'NONE',  ( -0.000000000000000000, -0.000000000000000000, -1.000000000000000000 ) ) ;
#140 = AXIS2_PLACEMENT_3D ( 'NONE', #108, #89, #22 ) ;
#141 = PERSON_AND_ORGANIZATION ( #65, #7 ) ;
#142 = AXIS2_PLACEMENT_3D ( 'NONE', #76, #136, #234 ) ;
#143 = LOCAL_TIME ( 19, 23, 19.00000000000000000, #40 ) ;
#144 = APPROVAL_DATE_TIME ( #238, #145 ) ;
#145 = APPROVAL ( #235, 'NEURÈENÝ' ) ;
#146 = AXIS2_PLACEMENT_3D ( 'NONE', #57, #194, #196 ) ;
#147 = VERTEX_POINT ( 'NONE', #230 ) ;
#148 = VERTEX_POINT ( 'NONE', #112 ) ;
#149 = APPROVAL ( #165, 'NEURÈENÝ' ) ;
#150 = CARTESIAN_POINT ( 'NONE',  ( 0.000000000000000000, 0.000000000000000000, 5.000000000000000000 ) ) ;
#151 = CIRCLE ( 'NONE', #37, 5.500000000000000000 ) ;
#152 = ORIENTED_EDGE ( 'NONE', *, *, #199, .F. ) ;
#153 = LOCAL_TIME ( 19, 23, 19.00000000000000000, #79 ) ;
#154 = ADVANCED_FACE ( 'NONE', ( #192 ), #215, .F. ) ;
#155 = CARTESIAN_POINT ( 'NONE',  ( -5.500000000000000000, 0.000000000000000000, 130.0000000000000000 ) ) ;
#156 = CARTESIAN_POINT ( 'NONE',  ( -8.000000000000000000, 0.000000000000000000, 5.000000000000000000 ) ) ;
#157 = CALENDAR_DATE ( 2022, 7, 7 ) ;
#158 = FACE_OUTER_BOUND ( 'NONE', #167, .T. ) ;
#159 = DATE_AND_TIME ( #182, #204 ) ;
#160 = CARTESIAN_POINT ( 'NONE',  ( 0.000000000000000000, 0.000000000000000000, 0.000000000000000000 ) ) ;
#161 = DATE_TIME_ROLE ( 'creation_date' ) ;
#162 = LINE ( 'NONE', #220, #106 ) ;
#163 = APPLICATION_CONTEXT ( 'configuration controlled 3d designs of mechanical parts and assemblies' ) ;
#164 = CC_DESIGN_PERSON_AND_ORGANIZATION_ASSIGNMENT ( #134, #25, ( #209 ) ) ;
#165 = APPROVAL_STATUS ( 'not_yet_approved' ) ;
#166 = ORIENTED_EDGE ( 'NONE', *, *, #138, .T. ) ;
#167 = EDGE_LOOP ( 'NONE', ( #166, #8 ) ) ;
#168 = ADVANCED_FACE ( 'NONE', ( #118 ), #131, .T. ) ;
#169 = CYLINDRICAL_SURFACE ( 'NONE', #119, 8.000000000000000000 ) ;
#170 = AXIS2_PLACEMENT_3D ( 'NONE', #232, #100, #42 ) ;
#171 = CARTESIAN_POINT ( 'NONE',  ( 5.500000000000000000, 6.735557395310442023E-16, 5.000000000000000000 ) ) ;
#172 = CARTESIAN_POINT ( 'NONE',  ( 8.000000000000000000, 9.797174393178825657E-16, 5.000000000000000000 ) ) ;
#173 = PERSON_AND_ORGANIZATION ( #65, #7 ) ;
#174 = DIRECTION ( 'NONE',  ( -0.000000000000000000, -0.000000000000000000, -1.000000000000000000 ) ) ;
#175 =( NAMED_UNIT ( * ) SI_UNIT ( $, .STERADIAN. ) SOLID_ANGLE_UNIT ( ) );
#176 = DIRECTION ( 'NONE',  ( 0.000000000000000000, 0.000000000000000000, 1.000000000000000000 ) ) ;
#177 = LOCAL_TIME ( 19, 23, 19.00000000000000000, #44 ) ;
#178 = SHAPE_DEFINITION_REPRESENTATION ( #103, #84 ) ;
#179 = CYLINDRICAL_SURFACE ( 'NONE', #216, 8.000000000000000000 ) ;
#180 = CIRCLE ( 'NONE', #75, 8.000000000000000000 ) ;
#181 = EDGE_CURVE ( 'NONE', #53, #148, #66, .T. ) ;
#182 = CALENDAR_DATE ( 2022, 7, 7 ) ;
#183 = EDGE_LOOP ( 'NONE', ( #11, #126, #239, #242 ) ) ;
#184 = ORIENTED_EDGE ( 'NONE', *, *, #185, .T. ) ;
#185 = EDGE_CURVE ( 'NONE', #188, #147, #190, .T. ) ;
#186 = EDGE_LOOP ( 'NONE', ( #6, #129, #28, #32 ) ) ;
#187 = CARTESIAN_POINT ( 'NONE',  ( 0.000000000000000000, 0.000000000000000000, 5.000000000000000000 ) ) ;
#188 = VERTEX_POINT ( 'NONE', #155 ) ;
#189 = VECTOR ( 'NONE', #236, 1000.000000000000000 ) ;
#190 = CIRCLE ( 'NONE', #56, 5.500000000000000000 ) ;
#191 = ADVANCED_FACE ( 'NONE', ( #94 ), #179, .T. ) ;
#192 = FACE_OUTER_BOUND ( 'NONE', #51, .T. ) ;
#193 = DIRECTION ( 'NONE',  ( -0.000000000000000000, -0.000000000000000000, -1.000000000000000000 ) ) ;
#194 = DIRECTION ( 'NONE',  ( 0.000000000000000000, 0.000000000000000000, 1.000000000000000000 ) ) ;
#195 = MECHANICAL_CONTEXT ( 'NONE', #163, 'mechanical' ) ;
#196 = DIRECTION ( 'NONE',  ( 1.000000000000000000, 0.000000000000000000, -0.000000000000000000 ) ) ;
#197 = LINE ( 'NONE', #249, #125 ) ;
#198 = UNCERTAINTY_MEASURE_WITH_UNIT (LENGTH_MEASURE( 1.000000000000000082E-05 ), #101, 'distance_accuracy_value', 'NONE');
#199 = EDGE_CURVE ( 'NONE', #70, #110, #202, .T. ) ;
#200 = PERSON_AND_ORGANIZATION ( #65, #7 ) ;
#201 = DIRECTION ( 'NONE',  ( 1.000000000000000000, 0.000000000000000000, 0.000000000000000000 ) ) ;
#202 = CIRCLE ( 'NONE', #130, 5.500000000000000000 ) ;
#203 = CARTESIAN_POINT ( 'NONE',  ( 0.000000000000000000, 0.000000000000000000, 5.000000000000000000 ) ) ;
#204 = LOCAL_TIME ( 19, 23, 19.00000000000000000, #74 ) ;
#205 = PERSON_AND_ORGANIZATION ( #65, #7 ) ;
#206 = FACE_OUTER_BOUND ( 'NONE', #228, .T. ) ;
#207 = CIRCLE ( 'NONE', #142, 5.500000000000000000 ) ;
#208 = ORIENTED_EDGE ( 'NONE', *, *, #245, .T. ) ;
#209 = PRODUCT ( '0798', '0798', '', ( #195 ) ) ;
#210 = EDGE_LOOP ( 'NONE', ( #184, #127 ) ) ;
#211 = ORIENTED_EDGE ( 'NONE', *, *, #120, .F. ) ;
#212 = ORIENTED_EDGE ( 'NONE', *, *, #181, .F. ) ;
#213 = APPLICATION_CONTEXT ( 'configuration controlled 3d designs of mechanical parts and assemblies' ) ;
#214 = CALENDAR_DATE ( 2022, 7, 7 ) ;
#215 = PLANE ( 'NONE',  #253 ) ;
#216 = AXIS2_PLACEMENT_3D ( 'NONE', #115, #73, #98 ) ;
#217 = DIRECTION ( 'NONE',  ( 0.000000000000000000, 0.000000000000000000, 1.000000000000000000 ) ) ;
#218 = PERSON_AND_ORGANIZATION ( #65, #7 ) ;
#219 = ADVANCED_FACE ( 'NONE', ( #61, #158 ), #48, .T. ) ;
#220 = CARTESIAN_POINT ( 'NONE',  ( 8.000000000000000000, 9.797174393178825657E-16, 5.000000000000000000 ) ) ;
#221 = SECURITY_CLASSIFICATION_LEVEL ( 'unclassified' ) ;
#222 = CARTESIAN_POINT ( 'NONE',  ( 5.500000000000000000, 6.735557395310442023E-16, 130.0000000000000000 ) ) ;
#223 = DATE_TIME_ROLE ( 'classification_date' ) ;
#224 = CYLINDRICAL_SURFACE ( 'NONE', #86, 5.500000000000000000 ) ;
#225 = ORIENTED_EDGE ( 'NONE', *, *, #62, .T. ) ;
#226 = EDGE_CURVE ( 'NONE', #147, #188, #207, .T. ) ;
#227 = ORIENTED_EDGE ( 'NONE', *, *, #185, .F. ) ;
#228 = EDGE_LOOP ( 'NONE', ( #68, #227, #225, #82 ) ) ;
#229 = ORIENTED_EDGE ( 'NONE', *, *, #52, .F. ) ;
#230 = CARTESIAN_POINT ( 'NONE',  ( 5.500000000000000000, 6.735557395310442023E-16, 130.0000000000000000 ) ) ;
#231 = APPROVAL_ROLE ( '' ) ;
#232 = CARTESIAN_POINT ( 'NONE',  ( 0.000000000000000000, 0.000000000000000000, 5.000000000000000000 ) ) ;
#233 = APPROVAL_ROLE ( '' ) ;
#234 = DIRECTION ( 'NONE',  ( 1.000000000000000000, 0.000000000000000000, 0.000000000000000000 ) ) ;
#235 = APPROVAL_STATUS ( 'not_yet_approved' ) ;
#236 = DIRECTION ( 'NONE',  ( -0.000000000000000000, -0.000000000000000000, -1.000000000000000000 ) ) ;
#237 = CIRCLE ( 'NONE', #24, 8.000000000000000000 ) ;
#238 = DATE_AND_TIME ( #3, #177 ) ;
#239 = ORIENTED_EDGE ( 'NONE', *, *, #181, .T. ) ;
#240 = CC_DESIGN_PERSON_AND_ORGANIZATION_ASSIGNMENT ( #117, #135, ( #247 ) ) ;
#241 =( GEOMETRIC_REPRESENTATION_CONTEXT ( 3 ) GLOBAL_UNCERTAINTY_ASSIGNED_CONTEXT ( ( #198 ) ) GLOBAL_UNIT_ASSIGNED_CONTEXT ( ( #101, #113, #175 ) ) REPRESENTATION_CONTEXT ( 'NONE', 'WORKASPACE' ) );
#242 = ORIENTED_EDGE ( 'NONE', *, *, #245, .F. ) ;
#243 = LOCAL_TIME ( 19, 23, 19.00000000000000000, #41 ) ;
#244 = CYLINDRICAL_SURFACE ( 'NONE', #2, 5.500000000000000000 ) ;
#245 = EDGE_CURVE ( 'NONE', #246, #148, #197, .T. ) ;
#246 = VERTEX_POINT ( 'NONE', #156 ) ;
#247 = PRODUCT_DEFINITION_FORMATION_WITH_SPECIFIED_SOURCE ( 'LIBOVOLNÝ', '', #209, .NOT_KNOWN. ) ;
#248 = DIRECTION ( 'NONE',  ( 0.000000000000000000, 0.000000000000000000, 1.000000000000000000 ) ) ;
#249 = CARTESIAN_POINT ( 'NONE',  ( -8.000000000000000000, 0.000000000000000000, 5.000000000000000000 ) ) ;
#250 = ADVANCED_FACE ( 'NONE', ( #206 ), #224, .T. ) ;
#251 = DIRECTION ( 'NONE',  ( 1.000000000000000000, 0.000000000000000000, 0.000000000000000000 ) ) ;
#252 = PERSON_AND_ORGANIZATION_ROLE ( 'creator' ) ;
#253 = AXIS2_PLACEMENT_3D ( 'NONE', #121, #15, #39 ) ;
#254 = CARTESIAN_POINT ( 'NONE',  ( -5.500000000000000000, 0.000000000000000000, 130.0000000000000000 ) ) ;
#255 = DATE_AND_TIME ( #214, #243 ) ;
ENDSEC;
END-ISO-10303-21;
