ISO-10303-21;
HEADER;
FILE_DESCRIPTION (( 'STEP AP203' ),
    '1' );
FILE_NAME ('8d10.STEP',
    '2022-07-07T17:23:02',
    ( '' ),
    ( '' ),
    'SwSTEP 2.0',
    'SolidWorks 2019',
    '' );
FILE_SCHEMA (( 'CONFIG_CONTROL_DESIGN' ));
ENDSEC;

DATA;
#1 = VECTOR ( 'NONE', #183, 1000.000000000000000 ) ;
#2 = FACE_OUTER_BOUND ( 'NONE', #23, .T. ) ;
#3 = APPROVAL_STATUS ( 'not_yet_approved' ) ;
#4 = ORIENTED_EDGE ( 'NONE', *, *, #85, .F. ) ;
#5 = CYLINDRICAL_SURFACE ( 'NONE', #190, 5.500000000000000000 ) ;
#6 = PERSON_AND_ORGANIZATION ( #130, #46 ) ;
#7 = DIRECTION ( 'NONE',  ( 0.000000000000000000, 0.000000000000000000, 1.000000000000000000 ) ) ;
#8 = CC_DESIGN_SECURITY_CLASSIFICATION ( #126, ( #195 ) ) ;
#9 = ORIENTED_EDGE ( 'NONE', *, *, #24, .T. ) ;
#10 = CIRCLE ( 'NONE', #96, 5.500000000000000000 ) ;
#11 = DIRECTION ( 'NONE',  ( 0.000000000000000000, 0.000000000000000000, 1.000000000000000000 ) ) ;
#12 = PLANE ( 'NONE',  #108 ) ;
#13 = CARTESIAN_POINT ( 'NONE',  ( 0.000000000000000000, 0.000000000000000000, 5.000000000000000000 ) ) ;
#14 = APPROVAL ( #150, 'NEURÈENÝ' ) ;
#15 = DATE_TIME_ROLE ( 'classification_date' ) ;
#16 = APPLICATION_PROTOCOL_DEFINITION ( 'international standard', 'config_control_design', 1994, #154 ) ;
#17 = ADVANCED_FACE ( 'NONE', ( #209 ), #12, .T. ) ;
#18 = PLANE ( 'NONE',  #250 ) ;
#19 = LOCAL_TIME ( 19, 23, 2.000000000000000000, #203 ) ;
#20 = PERSON_AND_ORGANIZATION_ROLE ( 'creator' ) ;
#21 = DIRECTION ( 'NONE',  ( 1.000000000000000000, 0.000000000000000000, -0.000000000000000000 ) ) ;
#22 = PERSON_AND_ORGANIZATION ( #130, #46 ) ;
#23 = EDGE_LOOP ( 'NONE', ( #119, #43 ) ) ;
#24 = EDGE_CURVE ( 'NONE', #91, #226, #28, .T. ) ;
#25 = ORIENTED_EDGE ( 'NONE', *, *, #213, .F. ) ;
#26 = LOCAL_TIME ( 19, 23, 2.000000000000000000, #87 ) ;
#27 = LINE ( 'NONE', #245, #248 ) ;
#28 = LINE ( 'NONE', #187, #1 ) ;
#29 = CARTESIAN_POINT ( 'NONE',  ( 0.000000000000000000, 0.000000000000000000, 0.000000000000000000 ) ) ;
#30 = FACE_OUTER_BOUND ( 'NONE', #211, .T. ) ;
#31 = EDGE_CURVE ( 'NONE', #84, #49, #152, .T. ) ;
#32 = AXIS2_PLACEMENT_3D ( 'NONE', #239, #196, #221 ) ;
#33 = CIRCLE ( 'NONE', #32, 8.000000000000000000 ) ;
#34 = EDGE_CURVE ( 'NONE', #91, #100, #10, .T. ) ;
#35 = DIRECTION ( 'NONE',  ( 1.000000000000000000, 0.000000000000000000, 0.000000000000000000 ) ) ;
#36 = CALENDAR_DATE ( 2022, 7, 7 ) ;
#37 = DIRECTION ( 'NONE',  ( -0.000000000000000000, -0.000000000000000000, -1.000000000000000000 ) ) ;
#38 = DATE_AND_TIME ( #54, #135 ) ;
#39 = CYLINDRICAL_SURFACE ( 'NONE', #147, 8.000000000000000000 ) ;
#40 = ORIENTED_EDGE ( 'NONE', *, *, #157, .F. ) ;
#41 = AXIS2_PLACEMENT_3D ( 'NONE', #205, #37, #77 ) ;
#42 = CARTESIAN_POINT ( 'NONE',  ( 0.000000000000000000, 0.000000000000000000, 205.0000000000000284 ) ) ;
#43 = ORIENTED_EDGE ( 'NONE', *, *, #31, .T. ) ;
#44 = CARTESIAN_POINT ( 'NONE',  ( 0.000000000000000000, 0.000000000000000000, 205.0000000000000284 ) ) ;
#45 = VERTEX_POINT ( 'NONE', #58 ) ;
#46 = ORGANIZATION ( 'NEURÈENÝ', 'NEURÈENÝ', '' ) ;
#47 = CARTESIAN_POINT ( 'NONE',  ( -5.500000000000000000, 0.000000000000000000, 5.000000000000000000 ) ) ;
#48 = ADVANCED_FACE ( 'NONE', ( #30 ), #39, .T. ) ;
#49 = VERTEX_POINT ( 'NONE', #112 ) ;
#50 = LOCAL_TIME ( 19, 23, 2.000000000000000000, #138 ) ;
#51 = APPROVAL ( #156, 'NEURÈENÝ' ) ;
#52 = CIRCLE ( 'NONE', #192, 5.500000000000000000 ) ;
#53 = AXIS2_PLACEMENT_3D ( 'NONE', #174, #194, #35 ) ;
#54 = CALENDAR_DATE ( 2022, 7, 7 ) ;
#55 = DIRECTION ( 'NONE',  ( 0.000000000000000000, 0.000000000000000000, 1.000000000000000000 ) ) ;
#56 = PERSON_AND_ORGANIZATION_ROLE ( 'classification_officer' ) ;
#57 = CARTESIAN_POINT ( 'NONE',  ( 8.000000000000000000, 9.797174393178825657E-16, 5.000000000000000000 ) ) ;
#58 = CARTESIAN_POINT ( 'NONE',  ( -8.000000000000000000, 0.000000000000000000, 0.000000000000000000 ) ) ;
#59 = FACE_BOUND ( 'NONE', #185, .T. ) ;
#60 = ORIENTED_EDGE ( 'NONE', *, *, #213, .T. ) ;
#61 = DIRECTION ( 'NONE',  ( 1.000000000000000000, 0.000000000000000000, 0.000000000000000000 ) ) ;
#62 = CARTESIAN_POINT ( 'NONE',  ( 0.000000000000000000, 0.000000000000000000, 205.0000000000000284 ) ) ;
#63 = EDGE_CURVE ( 'NONE', #45, #171, #33, .T. ) ;
#64 = CARTESIAN_POINT ( 'NONE',  ( 0.000000000000000000, 0.000000000000000000, 5.000000000000000000 ) ) ;
#65 = DIRECTION ( 'NONE',  ( 1.000000000000000000, 0.000000000000000000, 0.000000000000000000 ) ) ;
#66 = CIRCLE ( 'NONE', #111, 5.500000000000000000 ) ;
#67 = DIRECTION ( 'NONE',  ( 1.000000000000000000, 0.000000000000000000, 0.000000000000000000 ) ) ;
#68 =( NAMED_UNIT ( * ) SI_UNIT ( $, .STERADIAN. ) SOLID_ANGLE_UNIT ( ) );
#69 = VECTOR ( 'NONE', #70, 1000.000000000000000 ) ;
#70 = DIRECTION ( 'NONE',  ( -0.000000000000000000, -0.000000000000000000, -1.000000000000000000 ) ) ;
#71 = PERSON_AND_ORGANIZATION ( #130, #46 ) ;
#72 = APPROVAL_DATE_TIME ( #151, #14 ) ;
#73 = CC_DESIGN_PERSON_AND_ORGANIZATION_ASSIGNMENT ( #6, #76, ( #195 ) ) ;
#74 = VECTOR ( 'NONE', #181, 1000.000000000000000 ) ;
#75 = FACE_OUTER_BOUND ( 'NONE', #222, .T. ) ;
#76 = PERSON_AND_ORGANIZATION_ROLE ( 'design_supplier' ) ;
#77 = DIRECTION ( 'NONE',  ( -1.000000000000000000, 0.000000000000000000, 0.000000000000000000 ) ) ;
#78 = DATE_AND_TIME ( #98, #50 ) ;
#79 = ORIENTED_EDGE ( 'NONE', *, *, #34, .F. ) ;
#80 = ORIENTED_EDGE ( 'NONE', *, *, #172, .F. ) ;
#81 = CARTESIAN_POINT ( 'NONE',  ( 5.500000000000000000, 6.735557395310442023E-16, 5.000000000000000000 ) ) ;
#82 = EDGE_LOOP ( 'NONE', ( #103, #80, #244, #146 ) ) ;
#83 = DIRECTION ( 'NONE',  ( 0.000000000000000000, 0.000000000000000000, 1.000000000000000000 ) ) ;
#84 = VERTEX_POINT ( 'NONE', #57 ) ;
#85 = EDGE_CURVE ( 'NONE', #84, #171, #175, .T. ) ;
#86 = EDGE_CURVE ( 'NONE', #171, #45, #178, .T. ) ;
#87 = COORDINATED_UNIVERSAL_TIME_OFFSET ( 1, 0, .AHEAD. ) ;
#88 = CC_DESIGN_APPROVAL ( #51, ( #230 ) ) ;
#89 = SHAPE_DEFINITION_REPRESENTATION ( #128, #216 ) ;
#90 = CC_DESIGN_DATE_AND_TIME_ASSIGNMENT ( #38, #116, ( #230 ) ) ;
#91 = VERTEX_POINT ( 'NONE', #97 ) ;
#92 = AXIS2_PLACEMENT_3D ( 'NONE', #225, #168, #247 ) ;
#93 = ADVANCED_FACE ( 'NONE', ( #59, #2 ), #18, .T. ) ;
#94 = LINE ( 'NONE', #202, #74 ) ;
#95 = DATE_AND_TIME ( #36, #242 ) ;
#96 = AXIS2_PLACEMENT_3D ( 'NONE', #228, #240, #65 ) ;
#97 = CARTESIAN_POINT ( 'NONE',  ( 5.500000000000000000, 6.735557395310442023E-16, 205.0000000000000284 ) ) ;
#98 = CALENDAR_DATE ( 2022, 7, 7 ) ;
#99 = DESIGN_CONTEXT ( 'detailed design', #154, 'design' ) ;
#100 = VERTEX_POINT ( 'NONE', #141 ) ;
#101 = ORIENTED_EDGE ( 'NONE', *, *, #86, .T. ) ;
#102 = DIRECTION ( 'NONE',  ( -0.000000000000000000, -0.000000000000000000, -1.000000000000000000 ) ) ;
#103 = ORIENTED_EDGE ( 'NONE', *, *, #24, .F. ) ;
#104 = DIRECTION ( 'NONE',  ( 1.000000000000000000, 0.000000000000000000, -0.000000000000000000 ) ) ;
#105 = ORIENTED_EDGE ( 'NONE', *, *, #233, .F. ) ;
#106 = AXIS2_PLACEMENT_3D ( 'NONE', #29, #143, #104 ) ;
#107 = CC_DESIGN_PERSON_AND_ORGANIZATION_ASSIGNMENT ( #255, #234, ( #109 ) ) ;
#108 = AXIS2_PLACEMENT_3D ( 'NONE', #62, #7, #161 ) ;
#109 = PRODUCT ( '8d10', '8d10', '', ( #153 ) ) ;
#110 = ADVANCED_FACE ( 'NONE', ( #198 ), #237, .T. ) ;
#111 = AXIS2_PLACEMENT_3D ( 'NONE', #44, #11, #67 ) ;
#112 = CARTESIAN_POINT ( 'NONE',  ( -8.000000000000000000, 0.000000000000000000, 5.000000000000000000 ) ) ;
#113 = APPLICATION_PROTOCOL_DEFINITION ( 'international standard', 'config_control_design', 1994, #173 ) ;
#114 = ORIENTED_EDGE ( 'NONE', *, *, #63, .T. ) ;
#115 = EDGE_CURVE ( 'NONE', #249, #226, #52, .T. ) ;
#116 = DATE_TIME_ROLE ( 'creation_date' ) ;
#117 = CARTESIAN_POINT ( 'NONE',  ( 0.000000000000000000, 0.000000000000000000, 5.000000000000000000 ) ) ;
#118 = PERSON_AND_ORGANIZATION_ROLE ( 'creator' ) ;
#119 = ORIENTED_EDGE ( 'NONE', *, *, #233, .T. ) ;
#120 = CARTESIAN_POINT ( 'NONE',  ( 8.000000000000000000, 9.797174393178825657E-16, 0.000000000000000000 ) ) ;
#121 = ORIENTED_EDGE ( 'NONE', *, *, #85, .T. ) ;
#122 = APPROVAL ( #3, 'NEURÈENÝ' ) ;
#123 = ORIENTED_EDGE ( 'NONE', *, *, #157, .T. ) ;
#124 = FACE_OUTER_BOUND ( 'NONE', #206, .T. ) ;
#125 = ORIENTED_EDGE ( 'NONE', *, *, #172, .T. ) ;
#126 = SECURITY_CLASSIFICATION ( '', '', #238 ) ;
#127 = CC_DESIGN_PERSON_AND_ORGANIZATION_ASSIGNMENT ( #160, #118, ( #195 ) ) ;
#128 = PRODUCT_DEFINITION_SHAPE ( 'NONE', 'NONE',  #230 ) ;
#129 = CIRCLE ( 'NONE', #252, 5.500000000000000000 ) ;
#130 = PERSON ( 'NEURÈENÝ', 'NEURÈENÝ', 'NEURÈENÝ', ('NEURÈENÝ'), ('NEURÈENÝ'), ('NEURÈENÝ') ) ;
#131 = PERSON_AND_ORGANIZATION ( #130, #46 ) ;
#132 = CALENDAR_DATE ( 2022, 7, 7 ) ;
#133 = APPROVAL_ROLE ( '' ) ;
#134 = APPROVAL_ROLE ( '' ) ;
#135 = LOCAL_TIME ( 19, 23, 2.000000000000000000, #236 ) ;
#136 = PERSON_AND_ORGANIZATION ( #130, #46 ) ;
#137 = CARTESIAN_POINT ( 'NONE',  ( 0.000000000000000000, 0.000000000000000000, 5.000000000000000000 ) ) ;
#138 = COORDINATED_UNIVERSAL_TIME_OFFSET ( 1, 0, .AHEAD. ) ;
#139 = DIRECTION ( 'NONE',  ( -1.000000000000000000, 0.000000000000000000, 0.000000000000000000 ) ) ;
#140 = ORIENTED_EDGE ( 'NONE', *, *, #63, .F. ) ;
#141 = CARTESIAN_POINT ( 'NONE',  ( -5.500000000000000000, 0.000000000000000000, 205.0000000000000284 ) ) ;
#142 = ORIENTED_EDGE ( 'NONE', *, *, #86, .F. ) ;
#143 = DIRECTION ( 'NONE',  ( 0.000000000000000000, 0.000000000000000000, 1.000000000000000000 ) ) ;
#144 = ORIENTED_EDGE ( 'NONE', *, *, #34, .T. ) ;
#145 = CYLINDRICAL_SURFACE ( 'NONE', #92, 8.000000000000000000 ) ;
#146 = ORIENTED_EDGE ( 'NONE', *, *, #115, .T. ) ;
#147 = AXIS2_PLACEMENT_3D ( 'NONE', #180, #232, #139 ) ;
#148 = CC_DESIGN_APPROVAL ( #14, ( #126 ) ) ;
#149 = CC_DESIGN_PERSON_AND_ORGANIZATION_ASSIGNMENT ( #22, #56, ( #126 ) ) ;
#150 = APPROVAL_STATUS ( 'not_yet_approved' ) ;
#151 = DATE_AND_TIME ( #132, #26 ) ;
#152 = CIRCLE ( 'NONE', #253, 8.000000000000000000 ) ;
#153 = MECHANICAL_CONTEXT ( 'NONE', #173, 'mechanical' ) ;
#154 = APPLICATION_CONTEXT ( 'configuration controlled 3d designs of mechanical parts and assemblies' ) ;
#155 = CARTESIAN_POINT ( 'NONE',  ( 0.000000000000000000, 0.000000000000000000, 0.000000000000000000 ) ) ;
#156 = APPROVAL_STATUS ( 'not_yet_approved' ) ;
#157 = EDGE_CURVE ( 'NONE', #49, #45, #94, .T. ) ;
#158 = CC_DESIGN_APPROVAL ( #122, ( #195 ) ) ;
#159 = DIRECTION ( 'NONE',  ( 0.000000000000000000, 0.000000000000000000, 1.000000000000000000 ) ) ;
#160 = PERSON_AND_ORGANIZATION ( #130, #46 ) ;
#161 = DIRECTION ( 'NONE',  ( 1.000000000000000000, 0.000000000000000000, -0.000000000000000000 ) ) ;
#162 = DIRECTION ( 'NONE',  ( -0.000000000000000000, -0.000000000000000000, -1.000000000000000000 ) ) ;
#163 = PERSON_AND_ORGANIZATION ( #130, #46 ) ;
#164 =( GEOMETRIC_REPRESENTATION_CONTEXT ( 3 ) GLOBAL_UNCERTAINTY_ASSIGNED_CONTEXT ( ( #215 ) ) GLOBAL_UNIT_ASSIGNED_CONTEXT ( ( #207, #176, #68 ) ) REPRESENTATION_CONTEXT ( 'NONE', 'WORKASPACE' ) );
#165 = ADVANCED_FACE ( 'NONE', ( #75 ), #5, .T. ) ;
#166 = CARTESIAN_POINT ( 'NONE',  ( 0.000000000000000000, 0.000000000000000000, 5.000000000000000000 ) ) ;
#167 = EDGE_LOOP ( 'NONE', ( #125, #144 ) ) ;
#168 = DIRECTION ( 'NONE',  ( -0.000000000000000000, -0.000000000000000000, -1.000000000000000000 ) ) ;
#169 = DIRECTION ( 'NONE',  ( 0.000000000000000000, 0.000000000000000000, 1.000000000000000000 ) ) ;
#170 = FACE_OUTER_BOUND ( 'NONE', #224, .T. ) ;
#171 = VERTEX_POINT ( 'NONE', #120 ) ;
#172 = EDGE_CURVE ( 'NONE', #100, #91, #66, .T. ) ;
#173 = APPLICATION_CONTEXT ( 'configuration controlled 3d designs of mechanical parts and assemblies' ) ;
#174 = CARTESIAN_POINT ( 'NONE',  ( 0.000000000000000000, 0.000000000000000000, 0.000000000000000000 ) ) ;
#175 = LINE ( 'NONE', #254, #69 ) ;
#176 =( NAMED_UNIT ( * ) PLANE_ANGLE_UNIT ( ) SI_UNIT ( $, .RADIAN. ) );
#177 = DIRECTION ( 'NONE',  ( 1.000000000000000000, 0.000000000000000000, 0.000000000000000000 ) ) ;
#178 = CIRCLE ( 'NONE', #214, 8.000000000000000000 ) ;
#179 = COORDINATED_UNIVERSAL_TIME_OFFSET ( 1, 0, .AHEAD. ) ;
#180 = CARTESIAN_POINT ( 'NONE',  ( 0.000000000000000000, 0.000000000000000000, 5.000000000000000000 ) ) ;
#181 = DIRECTION ( 'NONE',  ( -0.000000000000000000, -0.000000000000000000, -1.000000000000000000 ) ) ;
#182 = APPROVAL_DATE_TIME ( #95, #122 ) ;
#183 = DIRECTION ( 'NONE',  ( -0.000000000000000000, -0.000000000000000000, -1.000000000000000000 ) ) ;
#184 = APPROVAL_PERSON_ORGANIZATION ( #136, #122, #218 ) ;
#185 = EDGE_LOOP ( 'NONE', ( #189, #25 ) ) ;
#186 = DIRECTION ( 'NONE',  ( 1.000000000000000000, 0.000000000000000000, 0.000000000000000000 ) ) ;
#187 = CARTESIAN_POINT ( 'NONE',  ( 5.500000000000000000, 6.735557395310442023E-16, 205.0000000000000284 ) ) ;
#188 = CC_DESIGN_PERSON_AND_ORGANIZATION_ASSIGNMENT ( #163, #20, ( #230 ) ) ;
#189 = ORIENTED_EDGE ( 'NONE', *, *, #115, .F. ) ;
#190 = AXIS2_PLACEMENT_3D ( 'NONE', #42, #162, #241 ) ;
#191 = APPROVAL_PERSON_ORGANIZATION ( #71, #51, #134 ) ;
#192 = AXIS2_PLACEMENT_3D ( 'NONE', #117, #223, #177 ) ;
#193 = EDGE_CURVE ( 'NONE', #100, #249, #27, .T. ) ;
#194 = DIRECTION ( 'NONE',  ( 0.000000000000000000, 0.000000000000000000, 1.000000000000000000 ) ) ;
#195 = PRODUCT_DEFINITION_FORMATION_WITH_SPECIFIED_SOURCE ( 'LIBOVOLNÝ', '', #109, .NOT_KNOWN. ) ;
#196 = DIRECTION ( 'NONE',  ( 0.000000000000000000, 0.000000000000000000, 1.000000000000000000 ) ) ;
#197 = ORIENTED_EDGE ( 'NONE', *, *, #31, .F. ) ;
#198 = FACE_OUTER_BOUND ( 'NONE', #82, .T. ) ;
#199 = AXIS2_PLACEMENT_3D ( 'NONE', #64, #227, #61 ) ;
#200 = APPROVAL_DATE_TIME ( #243, #51 ) ;
#201 = CC_DESIGN_DATE_AND_TIME_ASSIGNMENT ( #78, #15, ( #126 ) ) ;
#202 = CARTESIAN_POINT ( 'NONE',  ( -8.000000000000000000, 0.000000000000000000, 5.000000000000000000 ) ) ;
#203 = COORDINATED_UNIVERSAL_TIME_OFFSET ( 1, 0, .AHEAD. ) ;
#204 = ORIENTED_EDGE ( 'NONE', *, *, #193, .F. ) ;
#205 = CARTESIAN_POINT ( 'NONE',  ( 0.000000000000000000, 0.000000000000000000, 205.0000000000000284 ) ) ;
#206 = EDGE_LOOP ( 'NONE', ( #140, #142 ) ) ;
#207 =( LENGTH_UNIT ( ) NAMED_UNIT ( * ) SI_UNIT ( .MILLI., .METRE. ) );
#208 = APPROVAL_PERSON_ORGANIZATION ( #131, #14, #133 ) ;
#209 = FACE_OUTER_BOUND ( 'NONE', #167, .T. ) ;
#210 = PLANE ( 'NONE',  #106 ) ;
#211 = EDGE_LOOP ( 'NONE', ( #197, #121, #101, #40 ) ) ;
#212 = CIRCLE ( 'NONE', #199, 8.000000000000000000 ) ;
#213 = EDGE_CURVE ( 'NONE', #226, #249, #129, .T. ) ;
#214 = AXIS2_PLACEMENT_3D ( 'NONE', #155, #55, #219 ) ;
#215 = UNCERTAINTY_MEASURE_WITH_UNIT (LENGTH_MEASURE( 1.000000000000000082E-05 ), #207, 'distance_accuracy_value', 'NONE');
#216 = ADVANCED_BREP_SHAPE_REPRESENTATION ( '8d10', ( #217, #53 ), #164 ) ;
#217 = MANIFOLD_SOLID_BREP ( 'Pøidat vysunutím3', #229 ) ;
#218 = APPROVAL_ROLE ( '' ) ;
#219 = DIRECTION ( 'NONE',  ( 1.000000000000000000, 0.000000000000000000, 0.000000000000000000 ) ) ;
#220 = CALENDAR_DATE ( 2022, 7, 7 ) ;
#221 = DIRECTION ( 'NONE',  ( 1.000000000000000000, 0.000000000000000000, 0.000000000000000000 ) ) ;
#222 = EDGE_LOOP ( 'NONE', ( #79, #9, #60, #204 ) ) ;
#223 = DIRECTION ( 'NONE',  ( 0.000000000000000000, 0.000000000000000000, 1.000000000000000000 ) ) ;
#224 = EDGE_LOOP ( 'NONE', ( #4, #105, #123, #114 ) ) ;
#225 = CARTESIAN_POINT ( 'NONE',  ( 0.000000000000000000, 0.000000000000000000, 5.000000000000000000 ) ) ;
#226 = VERTEX_POINT ( 'NONE', #81 ) ;
#227 = DIRECTION ( 'NONE',  ( 0.000000000000000000, 0.000000000000000000, 1.000000000000000000 ) ) ;
#228 = CARTESIAN_POINT ( 'NONE',  ( 0.000000000000000000, 0.000000000000000000, 205.0000000000000284 ) ) ;
#229 = CLOSED_SHELL ( 'NONE', ( #165, #48, #231, #93, #251, #110, #17 ) ) ;
#230 = PRODUCT_DEFINITION ( 'NEZNÁMÝ', '', #195, #99 ) ;
#231 = ADVANCED_FACE ( 'NONE', ( #170 ), #145, .T. ) ;
#232 = DIRECTION ( 'NONE',  ( -0.000000000000000000, -0.000000000000000000, -1.000000000000000000 ) ) ;
#233 = EDGE_CURVE ( 'NONE', #49, #84, #212, .T. ) ;
#234 = PERSON_AND_ORGANIZATION_ROLE ( 'design_owner' ) ;
#235 = PRODUCT_RELATED_PRODUCT_CATEGORY ( 'detail', '', ( #109 ) ) ;
#236 = COORDINATED_UNIVERSAL_TIME_OFFSET ( 1, 0, .AHEAD. ) ;
#237 = CYLINDRICAL_SURFACE ( 'NONE', #41, 5.500000000000000000 ) ;
#238 = SECURITY_CLASSIFICATION_LEVEL ( 'unclassified' ) ;
#239 = CARTESIAN_POINT ( 'NONE',  ( 0.000000000000000000, 0.000000000000000000, 0.000000000000000000 ) ) ;
#240 = DIRECTION ( 'NONE',  ( 0.000000000000000000, 0.000000000000000000, 1.000000000000000000 ) ) ;
#241 = DIRECTION ( 'NONE',  ( -1.000000000000000000, 0.000000000000000000, 0.000000000000000000 ) ) ;
#242 = LOCAL_TIME ( 19, 23, 2.000000000000000000, #179 ) ;
#243 = DATE_AND_TIME ( #220, #19 ) ;
#244 = ORIENTED_EDGE ( 'NONE', *, *, #193, .T. ) ;
#245 = CARTESIAN_POINT ( 'NONE',  ( -5.500000000000000000, 0.000000000000000000, 205.0000000000000284 ) ) ;
#246 = DIRECTION ( 'NONE',  ( 1.000000000000000000, 0.000000000000000000, 0.000000000000000000 ) ) ;
#247 = DIRECTION ( 'NONE',  ( -1.000000000000000000, 0.000000000000000000, 0.000000000000000000 ) ) ;
#248 = VECTOR ( 'NONE', #102, 1000.000000000000000 ) ;
#249 = VERTEX_POINT ( 'NONE', #47 ) ;
#250 = AXIS2_PLACEMENT_3D ( 'NONE', #137, #159, #21 ) ;
#251 = ADVANCED_FACE ( 'NONE', ( #124 ), #210, .F. ) ;
#252 = AXIS2_PLACEMENT_3D ( 'NONE', #13, #83, #186 ) ;
#253 = AXIS2_PLACEMENT_3D ( 'NONE', #166, #169, #246 ) ;
#254 = CARTESIAN_POINT ( 'NONE',  ( 8.000000000000000000, 9.797174393178825657E-16, 5.000000000000000000 ) ) ;
#255 = PERSON_AND_ORGANIZATION ( #130, #46 ) ;
ENDSEC;
END-ISO-10303-21;
