ISO-10303-21;
HEADER;
FILE_DESCRIPTION (( 'STEP AP203' ),
    '1' );
FILE_NAME ('7f28.STEP',
    '2022-07-07T18:02:31',
    ( '' ),
    ( '' ),
    'SwSTEP 2.0',
    'SolidWorks 2019',
    '' );
FILE_SCHEMA (( 'CONFIG_CONTROL_DESIGN' ));
ENDSEC;

DATA;
#1 = DIRECTION ( 'NONE',  ( 0.000000000000000000, 0.000000000000000000, 1.000000000000000000 ) ) ;
#2 = DIRECTION ( 'NONE',  ( 1.000000000000000000, 0.000000000000000000, 0.000000000000000000 ) ) ;
#3 = DIRECTION ( 'NONE',  ( 1.000000000000000000, 0.000000000000000000, 0.000000000000000000 ) ) ;
#4 = DIRECTION ( 'NONE',  ( 1.000000000000000000, 0.000000000000000000, 0.000000000000000000 ) ) ;
#5 = AXIS2_PLACEMENT_3D ( 'NONE', #216, #41, #219 ) ;
#6 = DIRECTION ( 'NONE',  ( 1.000000000000000000, 0.000000000000000000, 0.000000000000000000 ) ) ;
#7 = EDGE_CURVE ( 'NONE', #248, #213, #226, .T. ) ;
#8 = PERSON_AND_ORGANIZATION ( #144, #115 ) ;
#9 = AXIS2_PLACEMENT_3D ( 'NONE', #104, #147, #45 ) ;
#10 = AXIS2_PLACEMENT_3D ( 'NONE', #90, #241, #70 ) ;
#11 = APPROVAL_DATE_TIME ( #55, #155 ) ;
#12 =( NAMED_UNIT ( * ) SI_UNIT ( $, .STERADIAN. ) SOLID_ANGLE_UNIT ( ) );
#13 = VERTEX_POINT ( 'NONE', #24 ) ;
#14 = DIRECTION ( 'NONE',  ( 0.000000000000000000, 0.000000000000000000, 1.000000000000000000 ) ) ;
#15 = ORIENTED_EDGE ( 'NONE', *, *, #100, .F. ) ;
#16 = APPROVAL ( #39, 'NEURÈENÝ' ) ;
#17 = LINE ( 'NONE', #182, #195 ) ;
#18 = CARTESIAN_POINT ( 'NONE',  ( 0.000000000000000000, 0.000000000000000000, 2.000000000000000000 ) ) ;
#19 = CARTESIAN_POINT ( 'NONE',  ( 0.000000000000000000, 0.000000000000000000, 102.0000000000000142 ) ) ;
#20 = CIRCLE ( 'NONE', #56, 2.000000000000000000 ) ;
#21 = ORIENTED_EDGE ( 'NONE', *, *, #75, .F. ) ;
#22 = DIRECTION ( 'NONE',  ( 1.000000000000000000, 0.000000000000000000, 0.000000000000000000 ) ) ;
#23 = DIRECTION ( 'NONE',  ( 0.000000000000000000, 0.000000000000000000, 1.000000000000000000 ) ) ;
#24 = CARTESIAN_POINT ( 'NONE',  ( -1.000000000000000000, 0.000000000000000000, 2.000000000000000000 ) ) ;
#25 = DIRECTION ( 'NONE',  ( 0.000000000000000000, 0.000000000000000000, 1.000000000000000000 ) ) ;
#26 = CC_DESIGN_PERSON_AND_ORGANIZATION_ASSIGNMENT ( #132, #191, ( #215 ) ) ;
#27 = AXIS2_PLACEMENT_3D ( 'NONE', #152, #25, #2 ) ;
#28 = APPLICATION_PROTOCOL_DEFINITION ( 'international standard', 'config_control_design', 1994, #186 ) ;
#29 = PERSON_AND_ORGANIZATION ( #144, #115 ) ;
#30 = PERSON_AND_ORGANIZATION_ROLE ( 'design_owner' ) ;
#31 = LOCAL_TIME ( 20, 2, 31.00000000000000000, #225 ) ;
#32 = APPROVAL_DATE_TIME ( #210, #59 ) ;
#33 = AXIS2_PLACEMENT_3D ( 'NONE', #220, #128, #22 ) ;
#34 = LOCAL_TIME ( 20, 2, 31.00000000000000000, #242 ) ;
#35 = VERTEX_POINT ( 'NONE', #63 ) ;
#36 = ADVANCED_FACE ( 'NONE', ( #83 ), #145, .T. ) ;
#37 = VECTOR ( 'NONE', #233, 1000.000000000000000 ) ;
#38 = ORIENTED_EDGE ( 'NONE', *, *, #66, .T. ) ;
#39 = APPROVAL_STATUS ( 'not_yet_approved' ) ;
#40 = EDGE_LOOP ( 'NONE', ( #15, #95, #178, #232 ) ) ;
#41 = DIRECTION ( 'NONE',  ( 0.000000000000000000, 0.000000000000000000, 1.000000000000000000 ) ) ;
#42 = FACE_BOUND ( 'NONE', #251, .T. ) ;
#43 = ORIENTED_EDGE ( 'NONE', *, *, #85, .F. ) ;
#44 = CARTESIAN_POINT ( 'NONE',  ( -2.000000000000000000, 0.000000000000000000, 0.000000000000000000 ) ) ;
#45 = DIRECTION ( 'NONE',  ( -1.000000000000000000, 0.000000000000000000, 0.000000000000000000 ) ) ;
#46 = CIRCLE ( 'NONE', #171, 1.000000000000000000 ) ;
#47 = DIRECTION ( 'NONE',  ( 1.000000000000000000, 0.000000000000000000, 0.000000000000000000 ) ) ;
#48 = ADVANCED_FACE ( 'NONE', ( #123 ), #125, .T. ) ;
#49 = PRODUCT ( '7f28', '7f28', '', ( #240 ) ) ;
#50 = DESIGN_CONTEXT ( 'detailed design', #186, 'design' ) ;
#51 = SECURITY_CLASSIFICATION ( '', '', #99 ) ;
#52 = CARTESIAN_POINT ( 'NONE',  ( 1.000000000000000000, 1.224646799147353207E-16, 102.0000000000000142 ) ) ;
#53 = PERSON_AND_ORGANIZATION ( #144, #115 ) ;
#54 = DIRECTION ( 'NONE',  ( 1.000000000000000000, 0.000000000000000000, 0.000000000000000000 ) ) ;
#55 = DATE_AND_TIME ( #111, #246 ) ;
#56 = AXIS2_PLACEMENT_3D ( 'NONE', #164, #223, #67 ) ;
#57 = PLANE ( 'NONE',  #62 ) ;
#58 = EDGE_CURVE ( 'NONE', #196, #35, #134, .T. ) ;
#59 = APPROVAL ( #227, 'NEURÈENÝ' ) ;
#60 = EDGE_CURVE ( 'NONE', #35, #254, #17, .T. ) ;
#61 = VERTEX_POINT ( 'NONE', #165 ) ;
#62 = AXIS2_PLACEMENT_3D ( 'NONE', #74, #244, #212 ) ;
#63 = CARTESIAN_POINT ( 'NONE',  ( 2.000000000000000000, 2.449293598294706414E-16, 2.000000000000000000 ) ) ;
#64 = VECTOR ( 'NONE', #167, 1000.000000000000000 ) ;
#65 = DIRECTION ( 'NONE',  ( -1.000000000000000000, 0.000000000000000000, 0.000000000000000000 ) ) ;
#66 = EDGE_CURVE ( 'NONE', #196, #106, #82, .T. ) ;
#67 = DIRECTION ( 'NONE',  ( 1.000000000000000000, 0.000000000000000000, 0.000000000000000000 ) ) ;
#68 = CC_DESIGN_PERSON_AND_ORGANIZATION_ASSIGNMENT ( #8, #173, ( #168 ) ) ;
#69 = DIRECTION ( 'NONE',  ( -0.000000000000000000, -0.000000000000000000, -1.000000000000000000 ) ) ;
#70 = DIRECTION ( 'NONE',  ( -1.000000000000000000, 0.000000000000000000, 0.000000000000000000 ) ) ;
#71 = APPROVAL_ROLE ( '' ) ;
#72 = MANIFOLD_SOLID_BREP ( 'Pøidat vysunutím3', #231 ) ;
#73 =( LENGTH_UNIT ( ) NAMED_UNIT ( * ) SI_UNIT ( .MILLI., .METRE. ) );
#74 = CARTESIAN_POINT ( 'NONE',  ( 0.000000000000000000, 0.000000000000000000, 0.000000000000000000 ) ) ;
#75 = EDGE_CURVE ( 'NONE', #213, #13, #143, .T. ) ;
#76 = ORIENTED_EDGE ( 'NONE', *, *, #205, .T. ) ;
#77 = ORIENTED_EDGE ( 'NONE', *, *, #60, .F. ) ;
#78 = ORIENTED_EDGE ( 'NONE', *, *, #58, .T. ) ;
#79 = CIRCLE ( 'NONE', #33, 1.000000000000000000 ) ;
#80 = ORIENTED_EDGE ( 'NONE', *, *, #58, .F. ) ;
#81 = CARTESIAN_POINT ( 'NONE',  ( 1.000000000000000000, 1.224646799147353207E-16, 102.0000000000000142 ) ) ;
#82 = LINE ( 'NONE', #198, #64 ) ;
#83 = FACE_OUTER_BOUND ( 'NONE', #102, .T. ) ;
#84 = FACE_OUTER_BOUND ( 'NONE', #40, .T. ) ;
#85 = EDGE_CURVE ( 'NONE', #35, #196, #237, .T. ) ;
#86 = DIRECTION ( 'NONE',  ( -0.000000000000000000, -0.000000000000000000, -1.000000000000000000 ) ) ;
#87 = CC_DESIGN_PERSON_AND_ORGANIZATION_ASSIGNMENT ( #247, #229, ( #51 ) ) ;
#88 = CARTESIAN_POINT ( 'NONE',  ( -2.000000000000000000, 0.000000000000000000, 2.000000000000000000 ) ) ;
#89 = CARTESIAN_POINT ( 'NONE',  ( 0.000000000000000000, 0.000000000000000000, 0.000000000000000000 ) ) ;
#90 = CARTESIAN_POINT ( 'NONE',  ( 0.000000000000000000, 0.000000000000000000, 2.000000000000000000 ) ) ;
#91 = APPROVAL_STATUS ( 'not_yet_approved' ) ;
#92 = COORDINATED_UNIVERSAL_TIME_OFFSET ( 1, 0, .AHEAD. ) ;
#93 = PERSON_AND_ORGANIZATION ( #144, #115 ) ;
#94 = ORIENTED_EDGE ( 'NONE', *, *, #175, .F. ) ;
#95 = ORIENTED_EDGE ( 'NONE', *, *, #205, .F. ) ;
#96 = AXIS2_PLACEMENT_3D ( 'NONE', #197, #185, #3 ) ;
#97 = ORIENTED_EDGE ( 'NONE', *, *, #153, .T. ) ;
#98 = ORIENTED_EDGE ( 'NONE', *, *, #60, .T. ) ;
#99 = SECURITY_CLASSIFICATION_LEVEL ( 'unclassified' ) ;
#100 = EDGE_CURVE ( 'NONE', #248, #61, #108, .T. ) ;
#101 = CC_DESIGN_PERSON_AND_ORGANIZATION_ASSIGNMENT ( #136, #30, ( #49 ) ) ;
#102 = EDGE_LOOP ( 'NONE', ( #76, #142 ) ) ;
#103 = PLANE ( 'NONE',  #245 ) ;
#104 = CARTESIAN_POINT ( 'NONE',  ( 0.000000000000000000, 0.000000000000000000, 2.000000000000000000 ) ) ;
#105 = LOCAL_TIME ( 20, 2, 31.00000000000000000, #177 ) ;
#106 = VERTEX_POINT ( 'NONE', #44 ) ;
#107 = UNCERTAINTY_MEASURE_WITH_UNIT (LENGTH_MEASURE( 1.000000000000000082E-05 ), #73, 'distance_accuracy_value', 'NONE');
#108 = LINE ( 'NONE', #81, #37 ) ;
#109 = CARTESIAN_POINT ( 'NONE',  ( 0.000000000000000000, 0.000000000000000000, 0.000000000000000000 ) ) ;
#110 = AXIS2_PLACEMENT_3D ( 'NONE', #89, #117, #54 ) ;
#111 = CALENDAR_DATE ( 2022, 7, 7 ) ;
#112 = FACE_OUTER_BOUND ( 'NONE', #176, .T. ) ;
#113 = DATE_AND_TIME ( #239, #31 ) ;
#114 = PERSON_AND_ORGANIZATION ( #144, #115 ) ;
#115 = ORGANIZATION ( 'NEURÈENÝ', 'NEURÈENÝ', '' ) ;
#116 = ADVANCED_FACE ( 'NONE', ( #42, #124 ), #103, .T. ) ;
#117 = DIRECTION ( 'NONE',  ( 0.000000000000000000, 0.000000000000000000, 1.000000000000000000 ) ) ;
#118 = DATE_AND_TIME ( #180, #105 ) ;
#119 = AXIS2_PLACEMENT_3D ( 'NONE', #184, #14, #200 ) ;
#120 = SHAPE_DEFINITION_REPRESENTATION ( #181, #193 ) ;
#121 = ADVANCED_FACE ( 'NONE', ( #146 ), #218, .T. ) ;
#122 = CC_DESIGN_DATE_AND_TIME_ASSIGNMENT ( #118, #158, ( #51 ) ) ;
#123 = FACE_OUTER_BOUND ( 'NONE', #206, .T. ) ;
#124 = FACE_OUTER_BOUND ( 'NONE', #187, .T. ) ;
#125 = CYLINDRICAL_SURFACE ( 'NONE', #9, 2.000000000000000000 ) ;
#126 = AXIS2_PLACEMENT_3D ( 'NONE', #203, #221, #65 ) ;
#127 = ORIENTED_EDGE ( 'NONE', *, *, #204, .F. ) ;
#128 = DIRECTION ( 'NONE',  ( 0.000000000000000000, 0.000000000000000000, 1.000000000000000000 ) ) ;
#129 = DIRECTION ( 'NONE',  ( 0.000000000000000000, 0.000000000000000000, 1.000000000000000000 ) ) ;
#130 = CYLINDRICAL_SURFACE ( 'NONE', #126, 1.000000000000000000 ) ;
#131 = APPROVAL_PERSON_ORGANIZATION ( #53, #59, #71 ) ;
#132 = PERSON_AND_ORGANIZATION ( #144, #115 ) ;
#133 = APPLICATION_PROTOCOL_DEFINITION ( 'international standard', 'config_control_design', 1994, #163 ) ;
#134 = CIRCLE ( 'NONE', #96, 2.000000000000000000 ) ;
#135 = EDGE_CURVE ( 'NONE', #61, #13, #79, .T. ) ;
#136 = PERSON_AND_ORGANIZATION ( #144, #115 ) ;
#137 = CIRCLE ( 'NONE', #27, 1.000000000000000000 ) ;
#138 = CC_DESIGN_SECURITY_CLASSIFICATION ( #51, ( #215 ) ) ;
#139 = AXIS2_PLACEMENT_3D ( 'NONE', #109, #23, #6 ) ;
#140 = CC_DESIGN_APPROVAL ( #16, ( #51 ) ) ;
#141 = ORIENTED_EDGE ( 'NONE', *, *, #7, .F. ) ;
#142 = ORIENTED_EDGE ( 'NONE', *, *, #7, .T. ) ;
#143 = LINE ( 'NONE', #202, #199 ) ;
#144 = PERSON ( 'NEURÈENÝ', 'NEURÈENÝ', 'NEURÈENÝ', ('NEURÈENÝ'), ('NEURÈENÝ'), ('NEURÈENÝ') ) ;
#145 = PLANE ( 'NONE',  #5 ) ;
#146 = FACE_OUTER_BOUND ( 'NONE', #235, .T. ) ;
#147 = DIRECTION ( 'NONE',  ( -0.000000000000000000, -0.000000000000000000, -1.000000000000000000 ) ) ;
#148 = DIRECTION ( 'NONE',  ( -1.000000000000000000, 0.000000000000000000, 0.000000000000000000 ) ) ;
#149 = CARTESIAN_POINT ( 'NONE',  ( -1.000000000000000000, 0.000000000000000000, 102.0000000000000142 ) ) ;
#150 = CC_DESIGN_APPROVAL ( #155, ( #168 ) ) ;
#151 = CC_DESIGN_APPROVAL ( #59, ( #215 ) ) ;
#152 = CARTESIAN_POINT ( 'NONE',  ( 0.000000000000000000, 0.000000000000000000, 2.000000000000000000 ) ) ;
#153 = EDGE_CURVE ( 'NONE', #106, #254, #170, .T. ) ;
#154 =( NAMED_UNIT ( * ) PLANE_ANGLE_UNIT ( ) SI_UNIT ( $, .RADIAN. ) );
#155 = APPROVAL ( #91, 'NEURÈENÝ' ) ;
#156 = AXIS2_PLACEMENT_3D ( 'NONE', #18, #129, #4 ) ;
#157 = ORIENTED_EDGE ( 'NONE', *, *, #85, .T. ) ;
#158 = DATE_TIME_ROLE ( 'classification_date' ) ;
#159 = CALENDAR_DATE ( 2022, 7, 7 ) ;
#160 = ORIENTED_EDGE ( 'NONE', *, *, #135, .T. ) ;
#161 = APPROVAL_DATE_TIME ( #253, #16 ) ;
#162 = ORIENTED_EDGE ( 'NONE', *, *, #66, .F. ) ;
#163 = APPLICATION_CONTEXT ( 'configuration controlled 3d designs of mechanical parts and assemblies' ) ;
#164 = CARTESIAN_POINT ( 'NONE',  ( 0.000000000000000000, 0.000000000000000000, 0.000000000000000000 ) ) ;
#165 = CARTESIAN_POINT ( 'NONE',  ( 1.000000000000000000, 1.224646799147353207E-16, 2.000000000000000000 ) ) ;
#166 = DIRECTION ( 'NONE',  ( 0.000000000000000000, 0.000000000000000000, 1.000000000000000000 ) ) ;
#167 = DIRECTION ( 'NONE',  ( -0.000000000000000000, -0.000000000000000000, -1.000000000000000000 ) ) ;
#168 = PRODUCT_DEFINITION ( 'NEZNÁMÝ', '', #215, #50 ) ;
#169 = APPROVAL_ROLE ( '' ) ;
#170 = CIRCLE ( 'NONE', #139, 2.000000000000000000 ) ;
#171 = AXIS2_PLACEMENT_3D ( 'NONE', #207, #166, #47 ) ;
#172 = LOCAL_TIME ( 20, 2, 31.00000000000000000, #194 ) ;
#173 = PERSON_AND_ORGANIZATION_ROLE ( 'creator' ) ;
#174 = PERSON_AND_ORGANIZATION_ROLE ( 'design_supplier' ) ;
#175 = EDGE_CURVE ( 'NONE', #13, #61, #137, .T. ) ;
#176 = EDGE_LOOP ( 'NONE', ( #43, #98, #250, #162 ) ) ;
#177 = COORDINATED_UNIVERSAL_TIME_OFFSET ( 1, 0, .AHEAD. ) ;
#178 = ORIENTED_EDGE ( 'NONE', *, *, #75, .T. ) ;
#179 = PRODUCT_RELATED_PRODUCT_CATEGORY ( 'detail', '', ( #49 ) ) ;
#180 = CALENDAR_DATE ( 2022, 7, 7 ) ;
#181 = PRODUCT_DEFINITION_SHAPE ( 'NONE', 'NONE',  #168 ) ;
#182 = CARTESIAN_POINT ( 'NONE',  ( 2.000000000000000000, 2.449293598294706414E-16, 2.000000000000000000 ) ) ;
#183 = CARTESIAN_POINT ( 'NONE',  ( 0.000000000000000000, 0.000000000000000000, 2.000000000000000000 ) ) ;
#184 = CARTESIAN_POINT ( 'NONE',  ( 0.000000000000000000, 0.000000000000000000, 102.0000000000000142 ) ) ;
#185 = DIRECTION ( 'NONE',  ( 0.000000000000000000, 0.000000000000000000, 1.000000000000000000 ) ) ;
#186 = APPLICATION_CONTEXT ( 'configuration controlled 3d designs of mechanical parts and assemblies' ) ;
#187 = EDGE_LOOP ( 'NONE', ( #78, #157 ) ) ;
#188 = CARTESIAN_POINT ( 'NONE',  ( 2.000000000000000000, 2.449293598294706414E-16, 0.000000000000000000 ) ) ;
#189 = CYLINDRICAL_SURFACE ( 'NONE', #10, 2.000000000000000000 ) ;
#190 = FACE_OUTER_BOUND ( 'NONE', #230, .T. ) ;
#191 = PERSON_AND_ORGANIZATION_ROLE ( 'creator' ) ;
#192 = AXIS2_PLACEMENT_3D ( 'NONE', #19, #236, #148 ) ;
#193 = ADVANCED_BREP_SHAPE_REPRESENTATION ( '7f28', ( #72, #110 ), #208 ) ;
#194 = COORDINATED_UNIVERSAL_TIME_OFFSET ( 1, 0, .AHEAD. ) ;
#195 = VECTOR ( 'NONE', #86, 1000.000000000000000 ) ;
#196 = VERTEX_POINT ( 'NONE', #88 ) ;
#197 = CARTESIAN_POINT ( 'NONE',  ( 0.000000000000000000, 0.000000000000000000, 2.000000000000000000 ) ) ;
#198 = CARTESIAN_POINT ( 'NONE',  ( -2.000000000000000000, 0.000000000000000000, 2.000000000000000000 ) ) ;
#199 = VECTOR ( 'NONE', #69, 1000.000000000000000 ) ;
#200 = DIRECTION ( 'NONE',  ( 1.000000000000000000, 0.000000000000000000, 0.000000000000000000 ) ) ;
#201 = ORIENTED_EDGE ( 'NONE', *, *, #153, .F. ) ;
#202 = CARTESIAN_POINT ( 'NONE',  ( -1.000000000000000000, 0.000000000000000000, 102.0000000000000142 ) ) ;
#203 = CARTESIAN_POINT ( 'NONE',  ( 0.000000000000000000, 0.000000000000000000, 102.0000000000000142 ) ) ;
#204 = EDGE_CURVE ( 'NONE', #254, #106, #20, .T. ) ;
#205 = EDGE_CURVE ( 'NONE', #213, #248, #46, .T. ) ;
#206 = EDGE_LOOP ( 'NONE', ( #77, #80, #38, #97 ) ) ;
#207 = CARTESIAN_POINT ( 'NONE',  ( 0.000000000000000000, 0.000000000000000000, 102.0000000000000142 ) ) ;
#208 =( GEOMETRIC_REPRESENTATION_CONTEXT ( 3 ) GLOBAL_UNCERTAINTY_ASSIGNED_CONTEXT ( ( #107 ) ) GLOBAL_UNIT_ASSIGNED_CONTEXT ( ( #73, #154, #12 ) ) REPRESENTATION_CONTEXT ( 'NONE', 'WORKASPACE' ) );
#209 = DATE_TIME_ROLE ( 'creation_date' ) ;
#210 = DATE_AND_TIME ( #224, #34 ) ;
#211 = ADVANCED_FACE ( 'NONE', ( #84 ), #130, .T. ) ;
#212 = DIRECTION ( 'NONE',  ( 1.000000000000000000, 0.000000000000000000, -0.000000000000000000 ) ) ;
#213 = VERTEX_POINT ( 'NONE', #149 ) ;
#214 = ORIENTED_EDGE ( 'NONE', *, *, #135, .F. ) ;
#215 = PRODUCT_DEFINITION_FORMATION_WITH_SPECIFIED_SOURCE ( 'LIBOVOLNÝ', '', #49, .NOT_KNOWN. ) ;
#216 = CARTESIAN_POINT ( 'NONE',  ( 0.000000000000000000, 0.000000000000000000, 102.0000000000000142 ) ) ;
#217 = CC_DESIGN_DATE_AND_TIME_ASSIGNMENT ( #113, #209, ( #168 ) ) ;
#218 = CYLINDRICAL_SURFACE ( 'NONE', #192, 1.000000000000000000 ) ;
#219 = DIRECTION ( 'NONE',  ( 1.000000000000000000, 0.000000000000000000, -0.000000000000000000 ) ) ;
#220 = CARTESIAN_POINT ( 'NONE',  ( 0.000000000000000000, 0.000000000000000000, 2.000000000000000000 ) ) ;
#221 = DIRECTION ( 'NONE',  ( -0.000000000000000000, -0.000000000000000000, -1.000000000000000000 ) ) ;
#222 = ADVANCED_FACE ( 'NONE', ( #112 ), #189, .T. ) ;
#223 = DIRECTION ( 'NONE',  ( 0.000000000000000000, 0.000000000000000000, 1.000000000000000000 ) ) ;
#224 = CALENDAR_DATE ( 2022, 7, 7 ) ;
#225 = COORDINATED_UNIVERSAL_TIME_OFFSET ( 1, 0, .AHEAD. ) ;
#226 = CIRCLE ( 'NONE', #119, 1.000000000000000000 ) ;
#227 = APPROVAL_STATUS ( 'not_yet_approved' ) ;
#228 = ORIENTED_EDGE ( 'NONE', *, *, #100, .T. ) ;
#229 = PERSON_AND_ORGANIZATION_ROLE ( 'classification_officer' ) ;
#230 = EDGE_LOOP ( 'NONE', ( #201, #127 ) ) ;
#231 = CLOSED_SHELL ( 'NONE', ( #121, #222, #48, #116, #255, #211, #36 ) ) ;
#232 = ORIENTED_EDGE ( 'NONE', *, *, #175, .T. ) ;
#233 = DIRECTION ( 'NONE',  ( -0.000000000000000000, -0.000000000000000000, -1.000000000000000000 ) ) ;
#234 = DIRECTION ( 'NONE',  ( 1.000000000000000000, 0.000000000000000000, -0.000000000000000000 ) ) ;
#235 = EDGE_LOOP ( 'NONE', ( #141, #228, #160, #21 ) ) ;
#236 = DIRECTION ( 'NONE',  ( -0.000000000000000000, -0.000000000000000000, -1.000000000000000000 ) ) ;
#237 = CIRCLE ( 'NONE', #156, 2.000000000000000000 ) ;
#238 = APPROVAL_PERSON_ORGANIZATION ( #93, #16, #249 ) ;
#239 = CALENDAR_DATE ( 2022, 7, 7 ) ;
#240 = MECHANICAL_CONTEXT ( 'NONE', #163, 'mechanical' ) ;
#241 = DIRECTION ( 'NONE',  ( -0.000000000000000000, -0.000000000000000000, -1.000000000000000000 ) ) ;
#242 = COORDINATED_UNIVERSAL_TIME_OFFSET ( 1, 0, .AHEAD. ) ;
#243 = CC_DESIGN_PERSON_AND_ORGANIZATION_ASSIGNMENT ( #29, #174, ( #215 ) ) ;
#244 = DIRECTION ( 'NONE',  ( 0.000000000000000000, 0.000000000000000000, 1.000000000000000000 ) ) ;
#245 = AXIS2_PLACEMENT_3D ( 'NONE', #183, #1, #234 ) ;
#246 = LOCAL_TIME ( 20, 2, 31.00000000000000000, #92 ) ;
#247 = PERSON_AND_ORGANIZATION ( #144, #115 ) ;
#248 = VERTEX_POINT ( 'NONE', #52 ) ;
#249 = APPROVAL_ROLE ( '' ) ;
#250 = ORIENTED_EDGE ( 'NONE', *, *, #204, .T. ) ;
#251 = EDGE_LOOP ( 'NONE', ( #94, #214 ) ) ;
#252 = APPROVAL_PERSON_ORGANIZATION ( #114, #155, #169 ) ;
#253 = DATE_AND_TIME ( #159, #172 ) ;
#254 = VERTEX_POINT ( 'NONE', #188 ) ;
#255 = ADVANCED_FACE ( 'NONE', ( #190 ), #57, .F. ) ;
ENDSEC;
END-ISO-10303-21;
