ISO-10303-21;
HEADER;
FILE_DESCRIPTION (( 'STEP AP203' ),
    '1' );
FILE_NAME ('1728.STEP',
    '2022-07-07T17:07:43',
    ( '' ),
    ( '' ),
    'SwSTEP 2.0',
    'SolidWorks 2019',
    '' );
FILE_SCHEMA (( 'CONFIG_CONTROL_DESIGN' ));
ENDSEC;

DATA;
#1 = AXIS2_PLACEMENT_3D ( 'NONE', #93, #197, #64 ) ;
#2 = FACE_OUTER_BOUND ( 'NONE', #236, .T. ) ;
#3 = CARTESIAN_POINT ( 'NONE',  ( 0.000000000000000000, 0.000000000000000000, 0.000000000000000000 ) ) ;
#4 =( LENGTH_UNIT ( ) NAMED_UNIT ( * ) SI_UNIT ( .MILLI., .METRE. ) );
#5 = DIRECTION ( 'NONE',  ( 1.000000000000000000, 0.000000000000000000, 0.000000000000000000 ) ) ;
#6 = CARTESIAN_POINT ( 'NONE',  ( 0.000000000000000000, 0.000000000000000000, 257.0000000000000000 ) ) ;
#7 = PERSON_AND_ORGANIZATION ( #212, #161 ) ;
#8 = APPROVAL_ROLE ( '' ) ;
#9 = CC_DESIGN_DATE_AND_TIME_ASSIGNMENT ( #128, #88, ( #44 ) ) ;
#10 = CYLINDRICAL_SURFACE ( 'NONE', #83, 8.000000000000000000 ) ;
#11 = PERSON_AND_ORGANIZATION ( #212, #161 ) ;
#12 = CARTESIAN_POINT ( 'NONE',  ( 8.000000000000000000, 9.797174393178825657E-16, 257.0000000000000000 ) ) ;
#13 = DIRECTION ( 'NONE',  ( 0.000000000000000000, 0.000000000000000000, 1.000000000000000000 ) ) ;
#14 = CARTESIAN_POINT ( 'NONE',  ( 0.000000000000000000, 0.000000000000000000, 7.000000000000000000 ) ) ;
#15 = DIRECTION ( 'NONE',  ( 1.000000000000000000, 0.000000000000000000, -0.000000000000000000 ) ) ;
#16 = CC_DESIGN_DATE_AND_TIME_ASSIGNMENT ( #112, #108, ( #252 ) ) ;
#17 = EDGE_LOOP ( 'NONE', ( #74, #248 ) ) ;
#18 = AXIS2_PLACEMENT_3D ( 'NONE', #39, #95, #53 ) ;
#19 = EDGE_CURVE ( 'NONE', #188, #253, #126, .T. ) ;
#20 = AXIS2_PLACEMENT_3D ( 'NONE', #127, #162, #87 ) ;
#21 = EDGE_LOOP ( 'NONE', ( #157, #171, #225, #209 ) ) ;
#22 = EDGE_CURVE ( 'NONE', #119, #37, #151, .T. ) ;
#23 = CIRCLE ( 'NONE', #79, 11.00000000000000000 ) ;
#24 = ADVANCED_BREP_SHAPE_REPRESENTATION ( '1728', ( #26, #121 ), #134 ) ;
#25 = PRODUCT_DEFINITION_SHAPE ( 'NONE', 'NONE',  #252 ) ;
#26 = MANIFOLD_SOLID_BREP ( 'Pøidat vysunutím3', #137 ) ;
#27 = FACE_OUTER_BOUND ( 'NONE', #21, .T. ) ;
#28 = SECURITY_CLASSIFICATION_LEVEL ( 'unclassified' ) ;
#29 = CARTESIAN_POINT ( 'NONE',  ( 0.000000000000000000, 0.000000000000000000, 0.000000000000000000 ) ) ;
#30 =( NAMED_UNIT ( * ) PLANE_ANGLE_UNIT ( ) SI_UNIT ( $, .RADIAN. ) );
#31 = CARTESIAN_POINT ( 'NONE',  ( 0.000000000000000000, 0.000000000000000000, 257.0000000000000000 ) ) ;
#32 = PERSON_AND_ORGANIZATION ( #212, #161 ) ;
#33 = EDGE_LOOP ( 'NONE', ( #104, #247, #176, #226 ) ) ;
#34 = DESIGN_CONTEXT ( 'detailed design', #234, 'design' ) ;
#35 = DIRECTION ( 'NONE',  ( -0.000000000000000000, -0.000000000000000000, -1.000000000000000000 ) ) ;
#36 = APPROVAL_DATE_TIME ( #245, #175 ) ;
#37 = VERTEX_POINT ( 'NONE', #191 ) ;
#38 = PLANE ( 'NONE',  #145 ) ;
#39 = CARTESIAN_POINT ( 'NONE',  ( 0.000000000000000000, 0.000000000000000000, 7.000000000000000000 ) ) ;
#40 = EDGE_CURVE ( 'NONE', #170, #37, #23, .T. ) ;
#41 = VERTEX_POINT ( 'NONE', #71 ) ;
#42 = AXIS2_PLACEMENT_3D ( 'NONE', #115, #174, #169 ) ;
#43 = AXIS2_PLACEMENT_3D ( 'NONE', #158, #85, #69 ) ;
#44 = SECURITY_CLASSIFICATION ( '', '', #28 ) ;
#45 = DIRECTION ( 'NONE',  ( 1.000000000000000000, 0.000000000000000000, -0.000000000000000000 ) ) ;
#46 = CC_DESIGN_PERSON_AND_ORGANIZATION_ASSIGNMENT ( #110, #182, ( #232 ) ) ;
#47 = DIRECTION ( 'NONE',  ( 1.000000000000000000, 0.000000000000000000, 0.000000000000000000 ) ) ;
#48 = COORDINATED_UNIVERSAL_TIME_OFFSET ( 1, 0, .AHEAD. ) ;
#49 = VECTOR ( 'NONE', #132, 1000.000000000000000 ) ;
#50 = FACE_OUTER_BOUND ( 'NONE', #150, .T. ) ;
#51 = CALENDAR_DATE ( 2022, 7, 7 ) ;
#52 = DIRECTION ( 'NONE',  ( -1.000000000000000000, 0.000000000000000000, 0.000000000000000000 ) ) ;
#53 = DIRECTION ( 'NONE',  ( 1.000000000000000000, 0.000000000000000000, 0.000000000000000000 ) ) ;
#54 = CARTESIAN_POINT ( 'NONE',  ( 8.000000000000000000, 9.797174393178825657E-16, 257.0000000000000000 ) ) ;
#55 = LOCAL_TIME ( 19, 7, 43.00000000000000000, #48 ) ;
#56 = VERTEX_POINT ( 'NONE', #54 ) ;
#57 = ORIENTED_EDGE ( 'NONE', *, *, #189, .T. ) ;
#58 = AXIS2_PLACEMENT_3D ( 'NONE', #6, #201, #109 ) ;
#59 = APPROVAL_PERSON_ORGANIZATION ( #32, #68, #224 ) ;
#60 = CARTESIAN_POINT ( 'NONE',  ( 0.000000000000000000, 0.000000000000000000, 7.000000000000000000 ) ) ;
#61 = PERSON_AND_ORGANIZATION_ROLE ( 'design_supplier' ) ;
#62 = CC_DESIGN_PERSON_AND_ORGANIZATION_ASSIGNMENT ( #216, #198, ( #252 ) ) ;
#63 = CARTESIAN_POINT ( 'NONE',  ( -8.000000000000000000, 0.000000000000000000, 257.0000000000000000 ) ) ;
#64 = DIRECTION ( 'NONE',  ( 1.000000000000000000, 0.000000000000000000, 0.000000000000000000 ) ) ;
#65 = DATE_AND_TIME ( #184, #102 ) ;
#66 = SHAPE_DEFINITION_REPRESENTATION ( #25, #24 ) ;
#67 = AXIS2_PLACEMENT_3D ( 'NONE', #60, #241, #131 ) ;
#68 = APPROVAL ( #86, 'NEURÈENÝ' ) ;
#69 = DIRECTION ( 'NONE',  ( 1.000000000000000000, 0.000000000000000000, 0.000000000000000000 ) ) ;
#70 = ORIENTED_EDGE ( 'NONE', *, *, #19, .T. ) ;
#71 = CARTESIAN_POINT ( 'NONE',  ( 11.00000000000000000, 1.347111479062088405E-15, 7.000000000000000000 ) ) ;
#72 = ORIENTED_EDGE ( 'NONE', *, *, #156, .T. ) ;
#73 = DIRECTION ( 'NONE',  ( 1.000000000000000000, 0.000000000000000000, 0.000000000000000000 ) ) ;
#74 = ORIENTED_EDGE ( 'NONE', *, *, #160, .F. ) ;
#75 = EDGE_CURVE ( 'NONE', #56, #188, #135, .T. ) ;
#76 = CC_DESIGN_APPROVAL ( #180, ( #232 ) ) ;
#77 = ORIENTED_EDGE ( 'NONE', *, *, #123, .F. ) ;
#78 = ADVANCED_FACE ( 'NONE', ( #118 ), #249, .T. ) ;
#79 = AXIS2_PLACEMENT_3D ( 'NONE', #206, #149, #73 ) ;
#80 = DIRECTION ( 'NONE',  ( 0.000000000000000000, 0.000000000000000000, 1.000000000000000000 ) ) ;
#81 = ADVANCED_FACE ( 'NONE', ( #230, #187 ), #38, .T. ) ;
#82 = APPROVAL_STATUS ( 'not_yet_approved' ) ;
#83 = AXIS2_PLACEMENT_3D ( 'NONE', #89, #107, #183 ) ;
#84 = LOCAL_TIME ( 19, 7, 43.00000000000000000, #144 ) ;
#85 = DIRECTION ( 'NONE',  ( 0.000000000000000000, 0.000000000000000000, 1.000000000000000000 ) ) ;
#86 = APPROVAL_STATUS ( 'not_yet_approved' ) ;
#87 = DIRECTION ( 'NONE',  ( 1.000000000000000000, 0.000000000000000000, 0.000000000000000000 ) ) ;
#88 = DATE_TIME_ROLE ( 'classification_date' ) ;
#89 = CARTESIAN_POINT ( 'NONE',  ( 0.000000000000000000, 0.000000000000000000, 257.0000000000000000 ) ) ;
#90 = CIRCLE ( 'NONE', #231, 8.000000000000000000 ) ;
#91 = APPLICATION_PROTOCOL_DEFINITION ( 'international standard', 'config_control_design', 1994, #234 ) ;
#92 = VERTEX_POINT ( 'NONE', #96 ) ;
#93 = CARTESIAN_POINT ( 'NONE',  ( 0.000000000000000000, 0.000000000000000000, 0.000000000000000000 ) ) ;
#94 = LOCAL_TIME ( 19, 7, 43.00000000000000000, #147 ) ;
#95 = DIRECTION ( 'NONE',  ( 0.000000000000000000, 0.000000000000000000, 1.000000000000000000 ) ) ;
#96 = CARTESIAN_POINT ( 'NONE',  ( -8.000000000000000000, 0.000000000000000000, 257.0000000000000000 ) ) ;
#97 = EDGE_LOOP ( 'NONE', ( #228, #152 ) ) ;
#98 = EDGE_CURVE ( 'NONE', #119, #41, #177, .T. ) ;
#99 = PRODUCT ( '1728', '1728', '', ( #235 ) ) ;
#100 = CIRCLE ( 'NONE', #155, 8.000000000000000000 ) ;
#101 = CC_DESIGN_PERSON_AND_ORGANIZATION_ASSIGNMENT ( #7, #61, ( #232 ) ) ;
#102 = LOCAL_TIME ( 19, 7, 43.00000000000000000, #159 ) ;
#103 = ADVANCED_FACE ( 'NONE', ( #50 ), #204, .T. ) ;
#104 = ORIENTED_EDGE ( 'NONE', *, *, #202, .F. ) ;
#105 = CARTESIAN_POINT ( 'NONE',  ( -8.000000000000000000, 0.000000000000000000, 7.000000000000000000 ) ) ;
#106 = APPROVAL_DATE_TIME ( #163, #68 ) ;
#107 = DIRECTION ( 'NONE',  ( -0.000000000000000000, -0.000000000000000000, -1.000000000000000000 ) ) ;
#108 = DATE_TIME_ROLE ( 'creation_date' ) ;
#109 = DIRECTION ( 'NONE',  ( -1.000000000000000000, 0.000000000000000000, 0.000000000000000000 ) ) ;
#110 = PERSON_AND_ORGANIZATION ( #212, #161 ) ;
#111 = DIRECTION ( 'NONE',  ( 0.000000000000000000, 0.000000000000000000, 1.000000000000000000 ) ) ;
#112 = DATE_AND_TIME ( #179, #94 ) ;
#113 = ORIENTED_EDGE ( 'NONE', *, *, #75, .T. ) ;
#114 = DIRECTION ( 'NONE',  ( 0.000000000000000000, 0.000000000000000000, 1.000000000000000000 ) ) ;
#115 = CARTESIAN_POINT ( 'NONE',  ( 0.000000000000000000, 0.000000000000000000, 7.000000000000000000 ) ) ;
#116 = APPLICATION_CONTEXT ( 'configuration controlled 3d designs of mechanical parts and assemblies' ) ;
#117 = DIRECTION ( 'NONE',  ( 0.000000000000000000, 0.000000000000000000, 1.000000000000000000 ) ) ;
#118 = FACE_OUTER_BOUND ( 'NONE', #33, .T. ) ;
#119 = VERTEX_POINT ( 'NONE', #220 ) ;
#120 = EDGE_LOOP ( 'NONE', ( #213, #72 ) ) ;
#121 = AXIS2_PLACEMENT_3D ( 'NONE', #3, #141, #5 ) ;
#122 = CC_DESIGN_SECURITY_CLASSIFICATION ( #44, ( #232 ) ) ;
#123 = EDGE_CURVE ( 'NONE', #92, #253, #164, .T. ) ;
#124 = CARTESIAN_POINT ( 'NONE',  ( 11.00000000000000000, 1.347111479062088405E-15, 0.000000000000000000 ) ) ;
#125 = APPLICATION_PROTOCOL_DEFINITION ( 'international standard', 'config_control_design', 1994, #116 ) ;
#126 = CIRCLE ( 'NONE', #18, 8.000000000000000000 ) ;
#127 = CARTESIAN_POINT ( 'NONE',  ( 0.000000000000000000, 0.000000000000000000, 7.000000000000000000 ) ) ;
#128 = DATE_AND_TIME ( #51, #84 ) ;
#129 = FACE_OUTER_BOUND ( 'NONE', #120, .T. ) ;
#130 = UNCERTAINTY_MEASURE_WITH_UNIT (LENGTH_MEASURE( 1.000000000000000082E-05 ), #4, 'distance_accuracy_value', 'NONE');
#131 = DIRECTION ( 'NONE',  ( 1.000000000000000000, 0.000000000000000000, 0.000000000000000000 ) ) ;
#132 = DIRECTION ( 'NONE',  ( -0.000000000000000000, -0.000000000000000000, -1.000000000000000000 ) ) ;
#133 = CARTESIAN_POINT ( 'NONE',  ( -11.00000000000000000, 0.000000000000000000, 7.000000000000000000 ) ) ;
#134 =( GEOMETRIC_REPRESENTATION_CONTEXT ( 3 ) GLOBAL_UNCERTAINTY_ASSIGNED_CONTEXT ( ( #130 ) ) GLOBAL_UNIT_ASSIGNED_CONTEXT ( ( #4, #30, #139 ) ) REPRESENTATION_CONTEXT ( 'NONE', 'WORKASPACE' ) );
#135 = LINE ( 'NONE', #12, #218 ) ;
#136 = ORIENTED_EDGE ( 'NONE', *, *, #22, .T. ) ;
#137 = CLOSED_SHELL ( 'NONE', ( #103, #78, #255, #81, #211, #207, #142 ) ) ;
#138 = CC_DESIGN_APPROVAL ( #175, ( #44 ) ) ;
#139 =( NAMED_UNIT ( * ) SI_UNIT ( $, .STERADIAN. ) SOLID_ANGLE_UNIT ( ) );
#140 = CARTESIAN_POINT ( 'NONE',  ( 11.00000000000000000, 1.347111479062088405E-15, 7.000000000000000000 ) ) ;
#141 = DIRECTION ( 'NONE',  ( 0.000000000000000000, 0.000000000000000000, 1.000000000000000000 ) ) ;
#142 = ADVANCED_FACE ( 'NONE', ( #129 ), #217, .T. ) ;
#143 = LINE ( 'NONE', #140, #193 ) ;
#144 = COORDINATED_UNIVERSAL_TIME_OFFSET ( 1, 0, .AHEAD. ) ;
#145 = AXIS2_PLACEMENT_3D ( 'NONE', #14, #117, #15 ) ;
#146 = PLANE ( 'NONE',  #254 ) ;
#147 = COORDINATED_UNIVERSAL_TIME_OFFSET ( 1, 0, .AHEAD. ) ;
#148 = DIRECTION ( 'NONE',  ( -0.000000000000000000, -0.000000000000000000, -1.000000000000000000 ) ) ;
#149 = DIRECTION ( 'NONE',  ( 0.000000000000000000, 0.000000000000000000, 1.000000000000000000 ) ) ;
#150 = EDGE_LOOP ( 'NONE', ( #203, #113, #70, #77 ) ) ;
#151 = LINE ( 'NONE', #133, #49 ) ;
#152 = ORIENTED_EDGE ( 'NONE', *, *, #202, .T. ) ;
#153 = EDGE_CURVE ( 'NONE', #41, #170, #143, .T. ) ;
#154 = PRODUCT_RELATED_PRODUCT_CATEGORY ( 'detail', '', ( #99 ) ) ;
#155 = AXIS2_PLACEMENT_3D ( 'NONE', #186, #111, #47 ) ;
#156 = EDGE_CURVE ( 'NONE', #56, #92, #90, .T. ) ;
#157 = ORIENTED_EDGE ( 'NONE', *, *, #75, .F. ) ;
#158 = CARTESIAN_POINT ( 'NONE',  ( 0.000000000000000000, 0.000000000000000000, 7.000000000000000000 ) ) ;
#159 = COORDINATED_UNIVERSAL_TIME_OFFSET ( 1, 0, .AHEAD. ) ;
#160 = EDGE_CURVE ( 'NONE', #253, #188, #233, .T. ) ;
#161 = ORGANIZATION ( 'NEURÈENÝ', 'NEURÈENÝ', '' ) ;
#162 = DIRECTION ( 'NONE',  ( 0.000000000000000000, 0.000000000000000000, 1.000000000000000000 ) ) ;
#163 = DATE_AND_TIME ( #196, #55 ) ;
#164 = LINE ( 'NONE', #63, #166 ) ;
#165 = PERSON_AND_ORGANIZATION ( #212, #161 ) ;
#166 = VECTOR ( 'NONE', #237, 1000.000000000000000 ) ;
#167 = DIRECTION ( 'NONE',  ( 1.000000000000000000, 0.000000000000000000, -0.000000000000000000 ) ) ;
#168 = APPROVAL_ROLE ( '' ) ;
#169 = DIRECTION ( 'NONE',  ( -1.000000000000000000, 0.000000000000000000, 0.000000000000000000 ) ) ;
#170 = VERTEX_POINT ( 'NONE', #124 ) ;
#171 = ORIENTED_EDGE ( 'NONE', *, *, #173, .F. ) ;
#172 = COORDINATED_UNIVERSAL_TIME_OFFSET ( 1, 0, .AHEAD. ) ;
#173 = EDGE_CURVE ( 'NONE', #92, #56, #100, .T. ) ;
#174 = DIRECTION ( 'NONE',  ( -0.000000000000000000, -0.000000000000000000, -1.000000000000000000 ) ) ;
#175 = APPROVAL ( #208, 'NEURÈENÝ' ) ;
#176 = ORIENTED_EDGE ( 'NONE', *, *, #40, .T. ) ;
#177 = CIRCLE ( 'NONE', #67, 11.00000000000000000 ) ;
#178 = CC_DESIGN_PERSON_AND_ORGANIZATION_ASSIGNMENT ( #200, #242, ( #44 ) ) ;
#179 = CALENDAR_DATE ( 2022, 7, 7 ) ;
#180 = APPROVAL ( #82, 'NEURÈENÝ' ) ;
#181 = CARTESIAN_POINT ( 'NONE',  ( 0.000000000000000000, 0.000000000000000000, 257.0000000000000000 ) ) ;
#182 = PERSON_AND_ORGANIZATION_ROLE ( 'creator' ) ;
#183 = DIRECTION ( 'NONE',  ( -1.000000000000000000, 0.000000000000000000, 0.000000000000000000 ) ) ;
#184 = CALENDAR_DATE ( 2022, 7, 7 ) ;
#185 = ORIENTED_EDGE ( 'NONE', *, *, #40, .F. ) ;
#186 = CARTESIAN_POINT ( 'NONE',  ( 0.000000000000000000, 0.000000000000000000, 257.0000000000000000 ) ) ;
#187 = FACE_OUTER_BOUND ( 'NONE', #97, .T. ) ;
#188 = VERTEX_POINT ( 'NONE', #243 ) ;
#189 = EDGE_CURVE ( 'NONE', #37, #170, #222, .T. ) ;
#190 = ORIENTED_EDGE ( 'NONE', *, *, #153, .F. ) ;
#191 = CARTESIAN_POINT ( 'NONE',  ( -11.00000000000000000, 0.000000000000000000, 0.000000000000000000 ) ) ;
#192 = APPROVAL_PERSON_ORGANIZATION ( #165, #175, #8 ) ;
#193 = VECTOR ( 'NONE', #35, 1000.000000000000000 ) ;
#194 = AXIS2_PLACEMENT_3D ( 'NONE', #31, #80, #45 ) ;
#195 = CC_DESIGN_APPROVAL ( #68, ( #252 ) ) ;
#196 = CALENDAR_DATE ( 2022, 7, 7 ) ;
#197 = DIRECTION ( 'NONE',  ( 0.000000000000000000, 0.000000000000000000, 1.000000000000000000 ) ) ;
#198 = PERSON_AND_ORGANIZATION_ROLE ( 'creator' ) ;
#199 = FACE_OUTER_BOUND ( 'NONE', #251, .T. ) ;
#200 = PERSON_AND_ORGANIZATION ( #212, #161 ) ;
#201 = DIRECTION ( 'NONE',  ( -0.000000000000000000, -0.000000000000000000, -1.000000000000000000 ) ) ;
#202 = EDGE_CURVE ( 'NONE', #41, #119, #229, .T. ) ;
#203 = ORIENTED_EDGE ( 'NONE', *, *, #156, .F. ) ;
#204 = CYLINDRICAL_SURFACE ( 'NONE', #58, 8.000000000000000000 ) ;
#205 = ORIENTED_EDGE ( 'NONE', *, *, #98, .F. ) ;
#206 = CARTESIAN_POINT ( 'NONE',  ( 0.000000000000000000, 0.000000000000000000, 0.000000000000000000 ) ) ;
#207 = ADVANCED_FACE ( 'NONE', ( #27 ), #10, .T. ) ;
#208 = APPROVAL_STATUS ( 'not_yet_approved' ) ;
#209 = ORIENTED_EDGE ( 'NONE', *, *, #160, .T. ) ;
#210 = ORIENTED_EDGE ( 'NONE', *, *, #189, .F. ) ;
#211 = ADVANCED_FACE ( 'NONE', ( #199 ), #146, .F. ) ;
#212 = PERSON ( 'NEURÈENÝ', 'NEURÈENÝ', 'NEURÈENÝ', ('NEURÈENÝ'), ('NEURÈENÝ'), ('NEURÈENÝ') ) ;
#213 = ORIENTED_EDGE ( 'NONE', *, *, #173, .T. ) ;
#214 = APPROVAL_PERSON_ORGANIZATION ( #244, #180, #168 ) ;
#215 = DIRECTION ( 'NONE',  ( 1.000000000000000000, 0.000000000000000000, 0.000000000000000000 ) ) ;
#216 = PERSON_AND_ORGANIZATION ( #212, #161 ) ;
#217 = PLANE ( 'NONE',  #194 ) ;
#218 = VECTOR ( 'NONE', #227, 1000.000000000000000 ) ;
#219 = CC_DESIGN_PERSON_AND_ORGANIZATION_ASSIGNMENT ( #11, #221, ( #99 ) ) ;
#220 = CARTESIAN_POINT ( 'NONE',  ( -11.00000000000000000, 0.000000000000000000, 7.000000000000000000 ) ) ;
#221 = PERSON_AND_ORGANIZATION_ROLE ( 'design_owner' ) ;
#222 = CIRCLE ( 'NONE', #1, 11.00000000000000000 ) ;
#223 = CARTESIAN_POINT ( 'NONE',  ( 0.000000000000000000, 0.000000000000000000, 7.000000000000000000 ) ) ;
#224 = APPROVAL_ROLE ( '' ) ;
#225 = ORIENTED_EDGE ( 'NONE', *, *, #123, .T. ) ;
#226 = ORIENTED_EDGE ( 'NONE', *, *, #22, .F. ) ;
#227 = DIRECTION ( 'NONE',  ( -0.000000000000000000, -0.000000000000000000, -1.000000000000000000 ) ) ;
#228 = ORIENTED_EDGE ( 'NONE', *, *, #98, .T. ) ;
#229 = CIRCLE ( 'NONE', #43, 11.00000000000000000 ) ;
#230 = FACE_BOUND ( 'NONE', #17, .T. ) ;
#231 = AXIS2_PLACEMENT_3D ( 'NONE', #181, #114, #215 ) ;
#232 = PRODUCT_DEFINITION_FORMATION_WITH_SPECIFIED_SOURCE ( 'LIBOVOLNÝ', '', #99, .NOT_KNOWN. ) ;
#233 = CIRCLE ( 'NONE', #20, 8.000000000000000000 ) ;
#234 = APPLICATION_CONTEXT ( 'configuration controlled 3d designs of mechanical parts and assemblies' ) ;
#235 = MECHANICAL_CONTEXT ( 'NONE', #116, 'mechanical' ) ;
#236 = EDGE_LOOP ( 'NONE', ( #190, #205, #136, #57 ) ) ;
#237 = DIRECTION ( 'NONE',  ( -0.000000000000000000, -0.000000000000000000, -1.000000000000000000 ) ) ;
#238 = APPROVAL_DATE_TIME ( #65, #180 ) ;
#239 = AXIS2_PLACEMENT_3D ( 'NONE', #223, #148, #52 ) ;
#240 = LOCAL_TIME ( 19, 7, 43.00000000000000000, #172 ) ;
#241 = DIRECTION ( 'NONE',  ( 0.000000000000000000, 0.000000000000000000, 1.000000000000000000 ) ) ;
#242 = PERSON_AND_ORGANIZATION_ROLE ( 'classification_officer' ) ;
#243 = CARTESIAN_POINT ( 'NONE',  ( 8.000000000000000000, 9.797174393178825657E-16, 7.000000000000000000 ) ) ;
#244 = PERSON_AND_ORGANIZATION ( #212, #161 ) ;
#245 = DATE_AND_TIME ( #250, #240 ) ;
#246 = CYLINDRICAL_SURFACE ( 'NONE', #239, 11.00000000000000000 ) ;
#247 = ORIENTED_EDGE ( 'NONE', *, *, #153, .T. ) ;
#248 = ORIENTED_EDGE ( 'NONE', *, *, #19, .F. ) ;
#249 = CYLINDRICAL_SURFACE ( 'NONE', #42, 11.00000000000000000 ) ;
#250 = CALENDAR_DATE ( 2022, 7, 7 ) ;
#251 = EDGE_LOOP ( 'NONE', ( #210, #185 ) ) ;
#252 = PRODUCT_DEFINITION ( 'NEZNÁMÝ', '', #232, #34 ) ;
#253 = VERTEX_POINT ( 'NONE', #105 ) ;
#254 = AXIS2_PLACEMENT_3D ( 'NONE', #29, #13, #167 ) ;
#255 = ADVANCED_FACE ( 'NONE', ( #2 ), #246, .T. ) ;
ENDSEC;
END-ISO-10303-21;
