ISO-10303-21;
HEADER;
FILE_DESCRIPTION (( 'STEP AP203' ),
    '1' );
FILE_NAME ('5fa1.STEP',
    '2023-02-13T12:26:36',
    ( '' ),
    ( '' ),
    'SwSTEP 2.0',
    'SolidWorks 2019',
    '' );
FILE_SCHEMA (( 'CONFIG_CONTROL_DESIGN' ));
ENDSEC;

DATA;
#1 = ORIENTED_EDGE ( 'NONE', *, *, #42, .T. ) ;
#2 = AXIS2_PLACEMENT_3D ( 'NONE', #92, #74, #33 ) ;
#3 = APPROVAL_PERSON_ORGANIZATION ( #176, #145, #212 ) ;
#4 = EDGE_CURVE ( 'NONE', #16, #44, #151, .T. ) ;
#5 = APPLICATION_CONTEXT ( 'configuration controlled 3d designs of mechanical parts and assemblies' ) ;
#6 = SHAPE_DEFINITION_REPRESENTATION ( #47, #231 ) ;
#7 = CARTESIAN_POINT ( 'NONE',  ( 0.000000000000000000, 0.000000000000000000, 400.0000000000000000 ) ) ;
#8 = DIRECTION ( 'NONE',  ( 1.000000000000000000, 0.000000000000000000, -0.000000000000000000 ) ) ;
#9 = CC_DESIGN_APPROVAL ( #80, ( #56 ) ) ;
#10 = EDGE_CURVE ( 'NONE', #64, #204, #12, .T. ) ;
#11 = PERSON_AND_ORGANIZATION_ROLE ( 'creator' ) ;
#12 = LINE ( 'NONE', #109, #101 ) ;
#13 = ORIENTED_EDGE ( 'NONE', *, *, #104, .F. ) ;
#14 = DATE_TIME_ROLE ( 'creation_date' ) ;
#15 = ORIENTED_EDGE ( 'NONE', *, *, #226, .T. ) ;
#16 = VERTEX_POINT ( 'NONE', #76 ) ;
#17 = EDGE_LOOP ( 'NONE', ( #24, #150, #199, #135 ) ) ;
#18 = APPROVAL_ROLE ( '' ) ;
#19 = DIRECTION ( 'NONE',  ( -1.000000000000000000, 0.000000000000000000, 0.000000000000000000 ) ) ;
#20 = EDGE_CURVE ( 'NONE', #73, #93, #21, .T. ) ;
#21 = CIRCLE ( 'NONE', #181, 9.000000000000000000 ) ;
#22 = PERSON_AND_ORGANIZATION_ROLE ( 'classification_officer' ) ;
#23 =( NAMED_UNIT ( * ) PLANE_ANGLE_UNIT ( ) SI_UNIT ( $, .RADIAN. ) );
#24 = ORIENTED_EDGE ( 'NONE', *, *, #42, .F. ) ;
#25 = CARTESIAN_POINT ( 'NONE',  ( -9.000000000000000000, 0.000000000000000000, 7.000000000000000000 ) ) ;
#26 = ORIENTED_EDGE ( 'NONE', *, *, #180, .T. ) ;
#27 = ADVANCED_FACE ( 'NONE', ( #52, #127 ), #149, .T. ) ;
#28 = CLOSED_SHELL ( 'NONE', ( #250, #66, #110, #27, #98, #161, #114 ) ) ;
#29 = APPROVAL_PERSON_ORGANIZATION ( #90, #80, #18 ) ;
#30 = PLANE ( 'NONE',  #2 ) ;
#31 = AXIS2_PLACEMENT_3D ( 'NONE', #185, #129, #205 ) ;
#32 = PRODUCT ( '5fa1', '5fa1', '', ( #174 ) ) ;
#33 = DIRECTION ( 'NONE',  ( 1.000000000000000000, 0.000000000000000000, -0.000000000000000000 ) ) ;
#34 = CC_DESIGN_APPROVAL ( #145, ( #146 ) ) ;
#35 = DIRECTION ( 'NONE',  ( 0.000000000000000000, 0.000000000000000000, 1.000000000000000000 ) ) ;
#36 = DIRECTION ( 'NONE',  ( -0.000000000000000000, -0.000000000000000000, -1.000000000000000000 ) ) ;
#37 = COORDINATED_UNIVERSAL_TIME_OFFSET ( 1, 0, .AHEAD. ) ;
#38 = CIRCLE ( 'NONE', #46, 5.750000000000000000 ) ;
#39 = CARTESIAN_POINT ( 'NONE',  ( 9.000000000000000000, 1.102182119232617714E-15, 7.000000000000000000 ) ) ;
#40 = CARTESIAN_POINT ( 'NONE',  ( 0.000000000000000000, 0.000000000000000000, 7.000000000000000000 ) ) ;
#41 = ORIENTED_EDGE ( 'NONE', *, *, #4, .F. ) ;
#42 = EDGE_CURVE ( 'NONE', #190, #64, #38, .T. ) ;
#43 = DIRECTION ( 'NONE',  ( 1.000000000000000000, 0.000000000000000000, 0.000000000000000000 ) ) ;
#44 = VERTEX_POINT ( 'NONE', #211 ) ;
#45 = DIRECTION ( 'NONE',  ( 0.000000000000000000, 0.000000000000000000, 1.000000000000000000 ) ) ;
#46 = AXIS2_PLACEMENT_3D ( 'NONE', #111, #113, #152 ) ;
#47 = PRODUCT_DEFINITION_SHAPE ( 'NONE', 'NONE',  #215 ) ;
#48 = AXIS2_PLACEMENT_3D ( 'NONE', #218, #219, #19 ) ;
#49 = FACE_OUTER_BOUND ( 'NONE', #77, .T. ) ;
#50 = CARTESIAN_POINT ( 'NONE',  ( 0.000000000000000000, 0.000000000000000000, 0.000000000000000000 ) ) ;
#51 = AXIS2_PLACEMENT_3D ( 'NONE', #40, #245, #144 ) ;
#52 = FACE_BOUND ( 'NONE', #251, .T. ) ;
#53 = ORIENTED_EDGE ( 'NONE', *, *, #104, .T. ) ;
#54 = EDGE_LOOP ( 'NONE', ( #81, #224, #147, #53 ) ) ;
#55 = CC_DESIGN_SECURITY_CLASSIFICATION ( #146, ( #56 ) ) ;
#56 = PRODUCT_DEFINITION_FORMATION_WITH_SPECIFIED_SOURCE ( 'LIBOVOLNÝ', '', #32, .NOT_KNOWN. ) ;
#57 = DATE_AND_TIME ( #153, #162 ) ;
#58 = CARTESIAN_POINT ( 'NONE',  ( 0.000000000000000000, 0.000000000000000000, 7.000000000000000000 ) ) ;
#59 = DIRECTION ( 'NONE',  ( 0.000000000000000000, 0.000000000000000000, 1.000000000000000000 ) ) ;
#60 =( LENGTH_UNIT ( ) NAMED_UNIT ( * ) SI_UNIT ( .MILLI., .METRE. ) );
#61 = COORDINATED_UNIVERSAL_TIME_OFFSET ( 1, 0, .AHEAD. ) ;
#62 = DIRECTION ( 'NONE',  ( 0.000000000000000000, 0.000000000000000000, 1.000000000000000000 ) ) ;
#63 = DIRECTION ( 'NONE',  ( 0.000000000000000000, 0.000000000000000000, 1.000000000000000000 ) ) ;
#64 = VERTEX_POINT ( 'NONE', #191 ) ;
#65 =( GEOMETRIC_REPRESENTATION_CONTEXT ( 3 ) GLOBAL_UNCERTAINTY_ASSIGNED_CONTEXT ( ( #227 ) ) GLOBAL_UNIT_ASSIGNED_CONTEXT ( ( #60, #23, #236 ) ) REPRESENTATION_CONTEXT ( 'NONE', 'WORKASPACE' ) );
#66 = ADVANCED_FACE ( 'NONE', ( #96 ), #124, .T. ) ;
#67 = DIRECTION ( 'NONE',  ( -0.000000000000000000, -0.000000000000000000, -1.000000000000000000 ) ) ;
#68 = CIRCLE ( 'NONE', #207, 9.000000000000000000 ) ;
#69 = PRODUCT_RELATED_PRODUCT_CATEGORY ( 'detail', '', ( #32 ) ) ;
#70 = APPLICATION_PROTOCOL_DEFINITION ( 'international standard', 'config_control_design', 1994, #5 ) ;
#71 = CYLINDRICAL_SURFACE ( 'NONE', #31, 9.000000000000000000 ) ;
#72 = CC_DESIGN_PERSON_AND_ORGANIZATION_ASSIGNMENT ( #237, #115, ( #56 ) ) ;
#73 = VERTEX_POINT ( 'NONE', #142 ) ;
#74 = DIRECTION ( 'NONE',  ( 0.000000000000000000, 0.000000000000000000, 1.000000000000000000 ) ) ;
#75 = APPLICATION_CONTEXT ( 'configuration controlled 3d designs of mechanical parts and assemblies' ) ;
#76 = CARTESIAN_POINT ( 'NONE',  ( 9.000000000000000000, 1.102182119232617714E-15, 0.000000000000000000 ) ) ;
#77 = EDGE_LOOP ( 'NONE', ( #189, #187, #26, #202 ) ) ;
#78 = AXIS2_PLACEMENT_3D ( 'NONE', #247, #200, #8 ) ;
#79 = CARTESIAN_POINT ( 'NONE',  ( 0.000000000000000000, 0.000000000000000000, 7.000000000000000000 ) ) ;
#80 = APPROVAL ( #163, 'NEURÈENÝ' ) ;
#81 = ORIENTED_EDGE ( 'NONE', *, *, #160, .F. ) ;
#82 = DIRECTION ( 'NONE',  ( -1.000000000000000000, 0.000000000000000000, 0.000000000000000000 ) ) ;
#83 = CC_DESIGN_DATE_AND_TIME_ASSIGNMENT ( #57, #131, ( #146 ) ) ;
#84 = CIRCLE ( 'NONE', #213, 5.750000000000000000 ) ;
#85 = DIRECTION ( 'NONE',  ( -0.000000000000000000, -0.000000000000000000, -1.000000000000000000 ) ) ;
#86 = FACE_OUTER_BOUND ( 'NONE', #54, .T. ) ;
#87 = CARTESIAN_POINT ( 'NONE',  ( -9.000000000000000000, 0.000000000000000000, 7.000000000000000000 ) ) ;
#88 = VERTEX_POINT ( 'NONE', #223 ) ;
#89 = FACE_OUTER_BOUND ( 'NONE', #233, .T. ) ;
#90 = PERSON_AND_ORGANIZATION ( #125, #246 ) ;
#91 = DIRECTION ( 'NONE',  ( 0.000000000000000000, 0.000000000000000000, 1.000000000000000000 ) ) ;
#92 = CARTESIAN_POINT ( 'NONE',  ( 0.000000000000000000, 0.000000000000000000, 400.0000000000000000 ) ) ;
#93 = VERTEX_POINT ( 'NONE', #25 ) ;
#94 = DIRECTION ( 'NONE',  ( 0.000000000000000000, 0.000000000000000000, 1.000000000000000000 ) ) ;
#95 = DATE_AND_TIME ( #148, #173 ) ;
#96 = FACE_OUTER_BOUND ( 'NONE', #112, .T. ) ;
#97 = APPROVAL_DATE_TIME ( #156, #80 ) ;
#98 = ADVANCED_FACE ( 'NONE', ( #89 ), #105, .F. ) ;
#99 = APPLICATION_PROTOCOL_DEFINITION ( 'international standard', 'config_control_design', 1994, #75 ) ;
#100 = DIRECTION ( 'NONE',  ( -0.000000000000000000, -0.000000000000000000, -1.000000000000000000 ) ) ;
#101 = VECTOR ( 'NONE', #36, 1000.000000000000000 ) ;
#102 = AXIS2_PLACEMENT_3D ( 'NONE', #238, #45, #172 ) ;
#103 = CC_DESIGN_PERSON_AND_ORGANIZATION_ASSIGNMENT ( #222, #141, ( #32 ) ) ;
#104 = EDGE_CURVE ( 'NONE', #204, #88, #84, .T. ) ;
#105 = PLANE ( 'NONE',  #78 ) ;
#106 = AXIS2_PLACEMENT_3D ( 'NONE', #58, #216, #137 ) ;
#107 = COORDINATED_UNIVERSAL_TIME_OFFSET ( 1, 0, .AHEAD. ) ;
#108 = ORIENTED_EDGE ( 'NONE', *, *, #20, .F. ) ;
#109 = CARTESIAN_POINT ( 'NONE',  ( -5.750000000000000000, 0.000000000000000000, 400.0000000000000000 ) ) ;
#110 = ADVANCED_FACE ( 'NONE', ( #49 ), #71, .T. ) ;
#111 = CARTESIAN_POINT ( 'NONE',  ( 0.000000000000000000, 0.000000000000000000, 400.0000000000000000 ) ) ;
#112 = EDGE_LOOP ( 'NONE', ( #108, #235, #252, #196 ) ) ;
#113 = DIRECTION ( 'NONE',  ( 0.000000000000000000, 0.000000000000000000, 1.000000000000000000 ) ) ;
#114 = ADVANCED_FACE ( 'NONE', ( #183 ), #30, .T. ) ;
#115 = PERSON_AND_ORGANIZATION_ROLE ( 'design_supplier' ) ;
#116 = DIRECTION ( 'NONE',  ( -0.000000000000000000, -0.000000000000000000, -1.000000000000000000 ) ) ;
#117 = LOCAL_TIME ( 13, 26, 36.00000000000000000, #228 ) ;
#118 = CYLINDRICAL_SURFACE ( 'NONE', #193, 5.750000000000000000 ) ;
#119 = CARTESIAN_POINT ( 'NONE',  ( 0.000000000000000000, 0.000000000000000000, 400.0000000000000000 ) ) ;
#120 = CC_DESIGN_PERSON_AND_ORGANIZATION_ASSIGNMENT ( #167, #11, ( #215 ) ) ;
#121 = PERSON_AND_ORGANIZATION ( #125, #246 ) ;
#122 = APPROVAL_ROLE ( '' ) ;
#123 = AXIS2_PLACEMENT_3D ( 'NONE', #7, #62, #43 ) ;
#124 = CYLINDRICAL_SURFACE ( 'NONE', #51, 9.000000000000000000 ) ;
#125 = PERSON ( 'NEURÈENÝ', 'NEURÈENÝ', 'NEURÈENÝ', ('NEURÈENÝ'), ('NEURÈENÝ'), ('NEURÈENÝ') ) ;
#126 = EDGE_LOOP ( 'NONE', ( #15, #1 ) ) ;
#127 = FACE_OUTER_BOUND ( 'NONE', #195, .T. ) ;
#128 = VECTOR ( 'NONE', #116, 1000.000000000000000 ) ;
#129 = DIRECTION ( 'NONE',  ( -0.000000000000000000, -0.000000000000000000, -1.000000000000000000 ) ) ;
#130 = DIRECTION ( 'NONE',  ( 1.000000000000000000, 0.000000000000000000, 0.000000000000000000 ) ) ;
#131 = DATE_TIME_ROLE ( 'classification_date' ) ;
#132 = APPROVAL_DATE_TIME ( #178, #145 ) ;
#133 = DIRECTION ( 'NONE',  ( 1.000000000000000000, 0.000000000000000000, 0.000000000000000000 ) ) ;
#134 = SECURITY_CLASSIFICATION_LEVEL ( 'unclassified' ) ;
#135 = ORIENTED_EDGE ( 'NONE', *, *, #10, .F. ) ;
#136 = APPROVAL_STATUS ( 'not_yet_approved' ) ;
#137 = DIRECTION ( 'NONE',  ( 1.000000000000000000, 0.000000000000000000, 0.000000000000000000 ) ) ;
#138 = CARTESIAN_POINT ( 'NONE',  ( -5.750000000000000000, 0.000000000000000000, 7.000000000000000000 ) ) ;
#139 = CC_DESIGN_APPROVAL ( #254, ( #215 ) ) ;
#140 = EDGE_CURVE ( 'NONE', #44, #16, #68, .T. ) ;
#141 = PERSON_AND_ORGANIZATION_ROLE ( 'design_owner' ) ;
#142 = CARTESIAN_POINT ( 'NONE',  ( 9.000000000000000000, 1.102182119232617714E-15, 7.000000000000000000 ) ) ;
#143 = LOCAL_TIME ( 13, 26, 36.00000000000000000, #37 ) ;
#144 = DIRECTION ( 'NONE',  ( -1.000000000000000000, 0.000000000000000000, 0.000000000000000000 ) ) ;
#145 = APPROVAL ( #136, 'NEURÈENÝ' ) ;
#146 = SECURITY_CLASSIFICATION ( '', '', #134 ) ;
#147 = ORIENTED_EDGE ( 'NONE', *, *, #10, .T. ) ;
#148 = CALENDAR_DATE ( 2023, 13, 2 ) ;
#149 = PLANE ( 'NONE',  #154 ) ;
#150 = ORIENTED_EDGE ( 'NONE', *, *, #160, .T. ) ;
#151 = CIRCLE ( 'NONE', #168, 9.000000000000000000 ) ;
#152 = DIRECTION ( 'NONE',  ( 1.000000000000000000, 0.000000000000000000, 0.000000000000000000 ) ) ;
#153 = CALENDAR_DATE ( 2023, 13, 2 ) ;
#154 = AXIS2_PLACEMENT_3D ( 'NONE', #230, #94, #208 ) ;
#155 = LINE ( 'NONE', #39, #128 ) ;
#156 = DATE_AND_TIME ( #192, #170 ) ;
#157 = ORIENTED_EDGE ( 'NONE', *, *, #232, .T. ) ;
#158 = LINE ( 'NONE', #87, #198 ) ;
#159 = CARTESIAN_POINT ( 'NONE',  ( 0.000000000000000000, 0.000000000000000000, 7.000000000000000000 ) ) ;
#160 = EDGE_CURVE ( 'NONE', #190, #88, #220, .T. ) ;
#161 = ADVANCED_FACE ( 'NONE', ( #86 ), #177, .T. ) ;
#162 = LOCAL_TIME ( 13, 26, 36.00000000000000000, #194 ) ;
#163 = APPROVAL_STATUS ( 'not_yet_approved' ) ;
#164 = CC_DESIGN_DATE_AND_TIME_ASSIGNMENT ( #188, #14, ( #215 ) ) ;
#165 = DIRECTION ( 'NONE',  ( 1.000000000000000000, 0.000000000000000000, 0.000000000000000000 ) ) ;
#166 = ORIENTED_EDGE ( 'NONE', *, *, #140, .F. ) ;
#167 = PERSON_AND_ORGANIZATION ( #125, #246 ) ;
#168 = AXIS2_PLACEMENT_3D ( 'NONE', #186, #91, #165 ) ;
#169 = ORIENTED_EDGE ( 'NONE', *, *, #210, .F. ) ;
#170 = LOCAL_TIME ( 13, 26, 36.00000000000000000, #61 ) ;
#171 = EDGE_CURVE ( 'NONE', #73, #16, #155, .T. ) ;
#172 = DIRECTION ( 'NONE',  ( 1.000000000000000000, 0.000000000000000000, 0.000000000000000000 ) ) ;
#173 = LOCAL_TIME ( 13, 26, 36.00000000000000000, #107 ) ;
#174 = MECHANICAL_CONTEXT ( 'NONE', #75, 'mechanical' ) ;
#175 = CARTESIAN_POINT ( 'NONE',  ( 0.000000000000000000, 0.000000000000000000, 0.000000000000000000 ) ) ;
#176 = PERSON_AND_ORGANIZATION ( #125, #246 ) ;
#177 = CYLINDRICAL_SURFACE ( 'NONE', #48, 5.750000000000000000 ) ;
#178 = DATE_AND_TIME ( #217, #143 ) ;
#179 = DIRECTION ( 'NONE',  ( 0.000000000000000000, 0.000000000000000000, 1.000000000000000000 ) ) ;
#180 = EDGE_CURVE ( 'NONE', #93, #44, #158, .T. ) ;
#181 = AXIS2_PLACEMENT_3D ( 'NONE', #79, #35, #130 ) ;
#182 = CIRCLE ( 'NONE', #102, 9.000000000000000000 ) ;
#183 = FACE_OUTER_BOUND ( 'NONE', #126, .T. ) ;
#184 = APPROVAL_STATUS ( 'not_yet_approved' ) ;
#185 = CARTESIAN_POINT ( 'NONE',  ( 0.000000000000000000, 0.000000000000000000, 7.000000000000000000 ) ) ;
#186 = CARTESIAN_POINT ( 'NONE',  ( 0.000000000000000000, 0.000000000000000000, 0.000000000000000000 ) ) ;
#187 = ORIENTED_EDGE ( 'NONE', *, *, #232, .F. ) ;
#188 = DATE_AND_TIME ( #206, #117 ) ;
#189 = ORIENTED_EDGE ( 'NONE', *, *, #171, .F. ) ;
#190 = VERTEX_POINT ( 'NONE', #240 ) ;
#191 = CARTESIAN_POINT ( 'NONE',  ( -5.750000000000000000, 0.000000000000000000, 400.0000000000000000 ) ) ;
#192 = CALENDAR_DATE ( 2023, 13, 2 ) ;
#193 = AXIS2_PLACEMENT_3D ( 'NONE', #119, #100, #82 ) ;
#194 = COORDINATED_UNIVERSAL_TIME_OFFSET ( 1, 0, .AHEAD. ) ;
#195 = EDGE_LOOP ( 'NONE', ( #157, #249 ) ) ;
#196 = ORIENTED_EDGE ( 'NONE', *, *, #180, .F. ) ;
#197 = PERSON_AND_ORGANIZATION ( #125, #246 ) ;
#198 = VECTOR ( 'NONE', #85, 1000.000000000000000 ) ;
#199 = ORIENTED_EDGE ( 'NONE', *, *, #210, .T. ) ;
#200 = DIRECTION ( 'NONE',  ( 0.000000000000000000, 0.000000000000000000, 1.000000000000000000 ) ) ;
#201 = CIRCLE ( 'NONE', #106, 5.750000000000000000 ) ;
#202 = ORIENTED_EDGE ( 'NONE', *, *, #140, .T. ) ;
#203 = APPROVAL_PERSON_ORGANIZATION ( #121, #254, #122 ) ;
#204 = VERTEX_POINT ( 'NONE', #138 ) ;
#205 = DIRECTION ( 'NONE',  ( -1.000000000000000000, 0.000000000000000000, 0.000000000000000000 ) ) ;
#206 = CALENDAR_DATE ( 2023, 13, 2 ) ;
#207 = AXIS2_PLACEMENT_3D ( 'NONE', #50, #179, #241 ) ;
#208 = DIRECTION ( 'NONE',  ( 1.000000000000000000, 0.000000000000000000, -0.000000000000000000 ) ) ;
#209 = AXIS2_PLACEMENT_3D ( 'NONE', #175, #59, #133 ) ;
#210 = EDGE_CURVE ( 'NONE', #88, #204, #201, .T. ) ;
#211 = CARTESIAN_POINT ( 'NONE',  ( -9.000000000000000000, 0.000000000000000000, 0.000000000000000000 ) ) ;
#212 = APPROVAL_ROLE ( '' ) ;
#213 = AXIS2_PLACEMENT_3D ( 'NONE', #159, #63, #221 ) ;
#214 = DESIGN_CONTEXT ( 'detailed design', #5, 'design' ) ;
#215 = PRODUCT_DEFINITION ( 'NEZNÁMÝ', '', #56, #214 ) ;
#216 = DIRECTION ( 'NONE',  ( 0.000000000000000000, 0.000000000000000000, 1.000000000000000000 ) ) ;
#217 = CALENDAR_DATE ( 2023, 13, 2 ) ;
#218 = CARTESIAN_POINT ( 'NONE',  ( 0.000000000000000000, 0.000000000000000000, 400.0000000000000000 ) ) ;
#219 = DIRECTION ( 'NONE',  ( -0.000000000000000000, -0.000000000000000000, -1.000000000000000000 ) ) ;
#220 = LINE ( 'NONE', #243, #244 ) ;
#221 = DIRECTION ( 'NONE',  ( 1.000000000000000000, 0.000000000000000000, 0.000000000000000000 ) ) ;
#222 = PERSON_AND_ORGANIZATION ( #125, #246 ) ;
#223 = CARTESIAN_POINT ( 'NONE',  ( 5.750000000000000000, 7.041719095097280880E-16, 7.000000000000000000 ) ) ;
#224 = ORIENTED_EDGE ( 'NONE', *, *, #226, .F. ) ;
#225 = APPROVAL_DATE_TIME ( #95, #254 ) ;
#226 = EDGE_CURVE ( 'NONE', #64, #190, #242, .T. ) ;
#227 = UNCERTAINTY_MEASURE_WITH_UNIT (LENGTH_MEASURE( 1.000000000000000082E-05 ), #60, 'distance_accuracy_value', 'NONE');
#228 = COORDINATED_UNIVERSAL_TIME_OFFSET ( 1, 0, .AHEAD. ) ;
#229 = MANIFOLD_SOLID_BREP ( 'Pøidat vysunutím3', #28 ) ;
#230 = CARTESIAN_POINT ( 'NONE',  ( 0.000000000000000000, 0.000000000000000000, 7.000000000000000000 ) ) ;
#231 = ADVANCED_BREP_SHAPE_REPRESENTATION ( '5fa1', ( #229, #209 ), #65 ) ;
#232 = EDGE_CURVE ( 'NONE', #93, #73, #182, .T. ) ;
#233 = EDGE_LOOP ( 'NONE', ( #166, #41 ) ) ;
#234 = PERSON_AND_ORGANIZATION ( #125, #246 ) ;
#235 = ORIENTED_EDGE ( 'NONE', *, *, #171, .T. ) ;
#236 =( NAMED_UNIT ( * ) SI_UNIT ( $, .STERADIAN. ) SOLID_ANGLE_UNIT ( ) );
#237 = PERSON_AND_ORGANIZATION ( #125, #246 ) ;
#238 = CARTESIAN_POINT ( 'NONE',  ( 0.000000000000000000, 0.000000000000000000, 7.000000000000000000 ) ) ;
#239 = CC_DESIGN_PERSON_AND_ORGANIZATION_ASSIGNMENT ( #197, #22, ( #146 ) ) ;
#240 = CARTESIAN_POINT ( 'NONE',  ( 5.750000000000000000, 7.041719095097280880E-16, 400.0000000000000000 ) ) ;
#241 = DIRECTION ( 'NONE',  ( 1.000000000000000000, 0.000000000000000000, 0.000000000000000000 ) ) ;
#242 = CIRCLE ( 'NONE', #123, 5.750000000000000000 ) ;
#243 = CARTESIAN_POINT ( 'NONE',  ( 5.750000000000000000, 7.041719095097280880E-16, 400.0000000000000000 ) ) ;
#244 = VECTOR ( 'NONE', #67, 1000.000000000000000 ) ;
#245 = DIRECTION ( 'NONE',  ( -0.000000000000000000, -0.000000000000000000, -1.000000000000000000 ) ) ;
#246 = ORGANIZATION ( 'NEURÈENÝ', 'NEURÈENÝ', '' ) ;
#247 = CARTESIAN_POINT ( 'NONE',  ( 0.000000000000000000, 0.000000000000000000, 0.000000000000000000 ) ) ;
#248 = CC_DESIGN_PERSON_AND_ORGANIZATION_ASSIGNMENT ( #234, #253, ( #56 ) ) ;
#249 = ORIENTED_EDGE ( 'NONE', *, *, #20, .T. ) ;
#250 = ADVANCED_FACE ( 'NONE', ( #255 ), #118, .T. ) ;
#251 = EDGE_LOOP ( 'NONE', ( #13, #169 ) ) ;
#252 = ORIENTED_EDGE ( 'NONE', *, *, #4, .T. ) ;
#253 = PERSON_AND_ORGANIZATION_ROLE ( 'creator' ) ;
#254 = APPROVAL ( #184, 'NEURÈENÝ' ) ;
#255 = FACE_OUTER_BOUND ( 'NONE', #17, .T. ) ;
ENDSEC;
END-ISO-10303-21;
